  0
SECTION
  2
HEADER
  9
$ACADVER
  1
AC1014
  9
$ACADMAINTVER
 70
     9
  9
$DWGCODEPAGE
  3
ANSI_1252
  9
$INSBASE
 10
0.0
 20
0.0
 30
0.0
  9
$EXTMIN
 10
50.46603797349999
 20
75.2816012085
 30
0.0
  9
$EXTMAX
 10
242.8980970029
 20
383.742135718
 30
0.0
  9
$LIMMIN
 10
0.0
 20
0.0
  9
$LIMMAX
 10
297.0
 20
420.0
  9
$ORTHOMODE
 70
     0
  9
$REGENMODE
 70
     1
  9
$FILLMODE
 70
     1
  9
$QTEXTMODE
 70
     0
  9
$MIRRTEXT
 70
     1
  9
$DRAGMODE
 70
     2
  9
$LTSCALE
 40
1.0
  9
$OSMODE
 70
    37
  9
$ATTMODE
 70
     1
  9
$TEXTSIZE
 40
2.5
  9
$TRACEWID
 40
1.0
  9
$TEXTSTYLE
  7
STANDARD
  9
$CLAYER
  8
0
  9
$CELTYPE
  6
BYLAYER
  9
$CECOLOR
 62
   256
  9
$CELTSCALE
 40
1.0
  9
$DELOBJ
 70
     1
  9
$DISPSILH
 70
     0
  9
$DIMSCALE
 40
1.0
  9
$DIMASZ
 40
2.5
  9
$DIMEXO
 40
0.0
  9
$DIMDLI
 40
3.75
  9
$DIMRND
 40
0.0
  9
$DIMDLE
 40
0.0
  9
$DIMEXE
 40
1.0
  9
$DIMTP
 40
0.0
  9
$DIMTM
 40
0.0
  9
$DIMTXT
 40
2.5
  9
$DIMCEN
 40
2.5
  9
$DIMTSZ
 40
0.0
  9
$DIMTOL
 70
     0
  9
$DIMLIM
 70
     0
  9
$DIMTIH
 70
     1
  9
$DIMTOH
 70
     1
  9
$DIMSE1
 70
     0
  9
$DIMSE2
 70
     0
  9
$DIMTAD
 70
     1
  9
$DIMZIN
 70
     0
  9
$DIMBLK
  1

  9
$DIMASO
 70
     1
  9
$DIMSHO
 70
     1
  9
$DIMPOST
  1

  9
$DIMAPOST
  1

  9
$DIMALT
 70
     0
  9
$DIMALTD
 70
     3
  9
$DIMALTF
 40
0.0393700787
  9
$DIMLFAC
 40
1.0
  9
$DIMTOFL
 70
     1
  9
$DIMTVP
 40
0.0
  9
$DIMTIX
 70
     0
  9
$DIMSOXD
 70
     0
  9
$DIMSAH
 70
     0
  9
$DIMBLK1
  1

  9
$DIMBLK2
  1

  9
$DIMSTYLE
  2
ISO-25
  9
$DIMCLRD
 70
     0
  9
$DIMCLRE
 70
     0
  9
$DIMCLRT
 70
     0
  9
$DIMTFAC
 40
1.0
  9
$DIMGAP
 40
2.0
  9
$DIMJUST
 70
     0
  9
$DIMSD1
 70
     0
  9
$DIMSD2
 70
     0
  9
$DIMTOLJ
 70
     1
  9
$DIMTZIN
 70
     0
  9
$DIMALTZ
 70
     0
  9
$DIMALTTZ
 70
     0
  9
$DIMFIT
 70
     5
  9
$DIMUPT
 70
     0
  9
$DIMUNIT
 70
     2
  9
$DIMDEC
 70
     2
  9
$DIMTDEC
 70
     2
  9
$DIMALTU
 70
     2
  9
$DIMALTTD
 70
     2
  9
$DIMTXSTY
  7
STANDARD
  9
$DIMAUNIT
 70
     0
  9
$LUNITS
 70
     2
  9
$LUPREC
 70
     2
  9
$SKETCHINC
 40
1.0
  9
$FILLETRAD
 40
0.0
  9
$AUNITS
 70
     0
  9
$AUPREC
 70
     1
  9
$MENU
  1
.
  9
$ELEVATION
 40
0.0
  9
$PELEVATION
 40
0.0
  9
$THICKNESS
 40
0.0
  9
$LIMCHECK
 70
     0
  9
$CHAMFERA
 40
0.0
  9
$CHAMFERB
 40
0.0
  9
$CHAMFERC
 40
0.0
  9
$CHAMFERD
 40
0.0
  9
$SKPOLY
 70
     0
  9
$TDCREATE
 40
2460249.789504572
  9
$TDUPDATE
 40
2460255.682625579
  9
$TDINDWG
 40
0.0013031366
  9
$TDUSRTIMER
 40
0.001303125
  9
$USRTIMER
 70
     1
  9
$ANGBASE
 50
0.0
  9
$ANGDIR
 70
     0
  9
$PDMODE
 70
     0
  9
$PDSIZE
 40
-1.0
  9
$PLINEWID
 40
0.0
  9
$COORDS
 70
     1
  9
$SPLFRAME
 70
     0
  9
$SPLINETYPE
 70
     6
  9
$SPLINESEGS
 70
     8
  9
$ATTDIA
 70
     0
  9
$ATTREQ
 70
     1
  9
$HANDLING
 70
     1
  9
$HANDSEED
  5
4BA
  9
$SURFTAB1
 70
     6
  9
$SURFTAB2
 70
     6
  9
$SURFTYPE
 70
     6
  9
$SURFU
 70
     6
  9
$SURFV
 70
     6
  9
$UCSNAME
  2

  9
$UCSORG
 10
0.0
 20
0.0
 30
0.0
  9
$UCSXDIR
 10
1.0
 20
0.0
 30
0.0
  9
$UCSYDIR
 10
0.0
 20
1.0
 30
0.0
  9
$PUCSNAME
  2

  9
$PUCSORG
 10
0.0
 20
0.0
 30
0.0
  9
$PUCSXDIR
 10
1.0
 20
0.0
 30
0.0
  9
$PUCSYDIR
 10
0.0
 20
1.0
 30
0.0
  9
$USERI1
 70
     0
  9
$USERI2
 70
     0
  9
$USERI3
 70
     0
  9
$USERI4
 70
     0
  9
$USERI5
 70
     0
  9
$USERR1
 40
0.0
  9
$USERR2
 40
0.0
  9
$USERR3
 40
0.0
  9
$USERR4
 40
0.0
  9
$USERR5
 40
0.0
  9
$WORLDVIEW
 70
     1
  9
$SHADEDGE
 70
     3
  9
$SHADEDIF
 70
    70
  9
$TILEMODE
 70
     1
  9
$MAXACTVP
 70
    64
  9
$PINSBASE
 10
0.0
 20
0.0
 30
0.0
  9
$PLIMCHECK
 70
     0
  9
$PEXTMIN
 10
1.000000000000000E+20
 20
1.000000000000000E+20
 30
1.000000000000000E+20
  9
$PEXTMAX
 10
-1.000000000000000E+20
 20
-1.000000000000000E+20
 30
-1.000000000000000E+20
  9
$PLIMMIN
 10
0.0
 20
0.0
  9
$PLIMMAX
 10
0.0
 20
0.0
  9
$UNITMODE
 70
     0
  9
$VISRETAIN
 70
     1
  9
$PLINEGEN
 70
     0
  9
$PSLTSCALE
 70
     1
  9
$TREEDEPTH
 70
  3020
  9
$PICKSTYLE
 70
     1
  9
$CMLSTYLE
  2
STANDARD
  9
$CMLJUST
 70
     0
  9
$CMLSCALE
 40
1.0
  9
$PROXYGRAPHICS
 70
     1
  9
$MEASUREMENT
 70
     0
  0
ENDSEC
  0
SECTION
  2
CLASSES
  0
CLASS
  1
ACDBDICTIONARYWDFLT
  2
AcDbDictionaryWithDefault
  3
ObjectDBX Classes
 90
        0
280
     0
281
     0
  0
CLASS
  1
MATERIAL
  2
AcDbMaterial
  3
ObjectDBX Classes
 90
     1153
280
     0
281
     0
  0
CLASS
  1
SCALE
  2
AcDbScale
  3
ObjectDBX Classes
 90
     1153
280
     0
281
     0
  0
CLASS
  1
VISUALSTYLE
  2
AcDbVisualStyle
  3
ObjectDBX Classes
 90
     4095
280
     0
281
     0
  0
CLASS
  1
TABLESTYLE
  2
AcDbTableStyle
  3
ObjectDBX Classes
 90
     4095
280
     0
281
     0
  0
CLASS
  1
MLEADERSTYLE
  2
AcDbMLeaderStyle
  3
ACDB_MLEADERSTYLE_CLASS
 90
     4095
280
     0
281
     0
  0
CLASS
  1
XRECORD
  2
AcDbXrecord
  3
ObjectDBX Classes
 90
        0
280
     0
281
     0
  0
CLASS
  1
LWPOLYLINE
  2
AcDbPolyline
  3
ObjectDBX Classes
 90
        0
280
     0
281
     1
  0
CLASS
  1
HATCH
  2
AcDbHatch
  3
ObjectDBX Classes
 90
        0
280
     0
281
     1
  0
ENDSEC
  0
SECTION
  2
TABLES
  0
TABLE
  2
VPORT
  5
3F6
330
0
100
AcDbSymbolTable
 70
     1
  0
VPORT
  5
40D
330
3F6
100
AcDbSymbolTableRecord
100
AcDbViewportTableRecord
  2
*ACTIVE
 70
     0
 10
0.0
 20
0.0
 11
1.0
 21
1.0
 12
146.6820674882
 22
229.5118684632499
 13
0.0
 23
0.0
 14
10.0
 24
10.0
 15
10.0
 25
10.0
 16
0.0
 26
0.0
 36
1.0
 17
0.0
 27
0.0
 37
0.0
 40
314.6297451996898
 41
1.718213058419244
 42
50.0
 43
0.0
 44
0.0
 50
0.0
 51
0.0
 71
    16
 72
  2000
 73
     1
 74
     3
 75
     0
 76
     0
 77
     0
 78
     0
  0
ENDTAB
  0
TABLE
  2
LTYPE
  5
3F3
330
0
100
AcDbSymbolTable
 70
     6
  0
LTYPE
  5
401
330
3F3
100
AcDbSymbolTableRecord
100
AcDbLinetypeTableRecord
  2
BYBLOCK
 70
     0
  3

 72
    65
 73
     0
 40
0.0
  0
LTYPE
  5
402
330
3F3
100
AcDbSymbolTableRecord
100
AcDbLinetypeTableRecord
  2
BYLAYER
 70
     0
  3

 72
    65
 73
     0
 40
0.0
  0
LTYPE
  5
403
330
3F3
100
AcDbSymbolTableRecord
100
AcDbLinetypeTableRecord
  2
CONTINUOUS
 70
     0
  3
Solid line
 72
    65
 73
     0
 40
0.0
  0
LTYPE
  5
40F
330
3F3
100
AcDbSymbolTableRecord
100
AcDbLinetypeTableRecord
  2
HIDDEN
 70
     0
  3
Hidden __ __ __ __ __ __ __ __ __ __ __ __ __ __
 72
    65
 73
     2
 40
1.905
 49
1.27
 74
     0
 49
-0.635
 74
     0
  0
LTYPE
  5
410
330
3F3
100
AcDbSymbolTableRecord
100
AcDbLinetypeTableRecord
  2
PHANTOM
 70
     0
  3
Phantom ______  __  __  ______  __  __  ______
 72
    65
 73
     6
 40
12.7
 49
6.35
 74
     0
 49
-1.27
 74
     0
 49
1.27
 74
     0
 49
-1.27
 74
     0
 49
1.27
 74
     0
 49
-1.27
 74
     0
  0
LTYPE
  5
411
330
3F3
100
AcDbSymbolTableRecord
100
AcDbLinetypeTableRecord
  2
CENTER
 70
     0
  3
Center ____ _ ____ _ ____ _ ____ _ ____ _ ____
 72
    65
 73
     4
 40
10.16
 49
6.35
 74
     0
 49
-1.27
 74
     0
 49
1.27
 74
     0
 49
-1.27
 74
     0
  0
LTYPE
  5
412
330
3F3
100
AcDbSymbolTableRecord
100
AcDbLinetypeTableRecord
  2
CENTERX2
 70
     0
  3
Center (2x) ________  __  ________  __  _____
 72
    65
 73
     4
 40
20.32
 49
12.7
 74
     0
 49
-2.54
 74
     0
 49
2.54
 74
     0
 49
-2.54
 74
     0
  0
LTYPE
  5
413
330
3F3
100
AcDbSymbolTableRecord
100
AcDbLinetypeTableRecord
  2
DOT2
 70
     0
  3
Dot (.5x) ........................................
 72
    65
 73
     2
 40
0.635
 49
0.0
 74
     0
 49
-0.635
 74
     0
  0
ENDTAB
  0
TABLE
  2
LAYER
  5
3F1
330
0
100
AcDbSymbolTable
 70
     3
  0
LAYER
  5
3FE
330
3F1
100
AcDbSymbolTableRecord
100
AcDbLayerTableRecord
  2
0
 70
     0
 62
     7
  6
CONTINUOUS
  0
LAYER
  5
419
330
3F1
100
AcDbSymbolTableRecord
100
AcDbLayerTableRecord
  2
REVISIONNOTES
 70
     0
 62
     1
  6
CONTINUOUS
  0
LAYER
  5
4B3
330
3F1
100
AcDbSymbolTableRecord
100
AcDbLayerTableRecord
  2
DEFPOINTS
 70
     0
 62
     7
  6
CONTINUOUS
  0
ENDTAB
  0
TABLE
  2
STYLE
  5
3F2
330
0
100
AcDbSymbolTable
 70
     1
  0
STYLE
  5
3FF
330
3F2
100
AcDbSymbolTableRecord
100
AcDbTextStyleTableRecord
  2
STANDARD
 70
     0
 40
0.0
 41
1.0
 50
0.0
 71
     0
 42
2.5
  3
txt
  4

  0
ENDTAB
  0
TABLE
  2
VIEW
  5
3F4
330
0
100
AcDbSymbolTable
 70
     0
  0
ENDTAB
  0
TABLE
  2
UCS
  5
3F5
330
0
100
AcDbSymbolTable
 70
     0
  0
ENDTAB
  0
TABLE
  2
APPID
  5
3F7
330
0
100
AcDbSymbolTable
 70
     3
  0
APPID
  5
400
330
3F7
100
AcDbSymbolTableRecord
100
AcDbRegAppTableRecord
  2
ACAD
 70
     0
  0
APPID
  5
4B2
330
3F7
100
AcDbSymbolTableRecord
100
AcDbRegAppTableRecord
  2
ACAD_DSTYLE_DIMRADIAL_EXTE
 70
     0
  0
APPID
  5
4B5
330
3F7
100
AcDbSymbolTableRecord
100
AcDbRegAppTableRecord
  2
FX_DIMP_FAV_VERSION
 70
     0
  0
ENDTAB
  0
TABLE
  2
DIMSTYLE
  5
3F8
330
0
100
AcDbSymbolTable
 70
     4
  0
DIMSTYLE
105
41C
330
3F8
100
AcDbSymbolTableRecord
100
AcDbDimStyleTableRecord
  2
ISO-25
 70
     0
  3

  4

  5

  6

  7

 40
1.0
 41
2.5
 42
0.625
 43
3.75
 44
1.25
 45
0.0
 46
0.0
 47
0.0
 48
0.0
140
2.5
141
2.5
142
0.0
143
0.0393700787
144
1.0
145
0.0
146
1.0
147
0.625
 71
     0
 72
     0
 73
     0
 74
     0
 75
     0
 76
     0
 77
     1
 78
     8
170
     0
171
     3
172
     1
173
     0
174
     0
175
     0
176
     0
177
     0
178
     0
270
     2
271
     4
272
     4
273
     2
274
     2
340
3FF
275
     0
280
     0
281
     0
282
     0
283
     1
284
     0
285
     0
286
     0
287
     3
288
     0
  0
DIMSTYLE
105
41D
330
3F8
100
AcDbSymbolTableRecord
100
AcDbDimStyleTableRecord
  2
SLDDIMSTYLE0
 70
     0
  3

  4

  5

  6

  7

 40
1.0
 41
2.5
 42
0.0625
 43
0.38
 44
0.0
 45
0.000000001
 46
0.0
 47
0.0
 48
0.0
140
2.5
141
0.09
142
0.0
143
25.4
144
1.0
145
0.0
146
1.0
147
0.625
 71
     0
 72
     0
 73
     0
 74
     0
 75
     0
 76
     0
 77
     1
 78
    12
170
     0
171
     2
172
     0
173
     1
174
     0
175
     0
176
     0
177
     0
178
     0
270
     2
271
     4
272
     4
273
     2
274
     2
340
3FF
275
     0
280
     0
281
     0
282
     0
283
     1
284
     0
285
     0
286
     0
287
     3
288
     0
  0
DIMSTYLE
105
41E
330
3F8
100
AcDbSymbolTableRecord
100
AcDbDimStyleTableRecord
  2
SLDDIMSTYLE1
 70
     0
  3

  4

  5

  6

  7

 40
1.0
 41
2.5
 42
0.0625
 43
0.38
 44
0.0
 45
0.000000001
 46
0.0
 47
0.0
 48
0.0
140
2.5
141
0.0
142
0.0
143
25.4
144
1.0
145
0.0
146
1.0
147
0.625
 71
     0
 72
     0
 73
     0
 74
     0
 75
     0
 76
     0
 77
     1
 78
    12
170
     0
171
     2
172
     1
173
     1
174
     0
175
     0
176
     0
177
     0
178
     0
270
     2
271
     4
272
     4
273
     2
274
     2
340
3FF
275
     0
280
     0
281
     0
282
     0
283
     1
284
     0
285
     0
286
     0
287
     3
288
     0
  0
DIMSTYLE
105
41F
330
3F8
100
AcDbSymbolTableRecord
100
AcDbDimStyleTableRecord
  2
SLDDIMSTYLE2
 70
     0
  3

  4

  5

  6

  7

 40
1.0
 41
2.5
 42
0.0625
 43
0.38
 44
0.0
 45
0.000000001
 46
0.0
 47
0.0
 48
0.0
140
2.5
141
0.09
142
0.0
143
25.4
144
1.0
145
0.0
146
1.0
147
0.625
 71
     0
 72
     0
 73
     0
 74
     0
 75
     0
 76
     0
 77
     1
 78
    12
170
     0
171
     2
172
     1
173
     1
174
     0
175
     0
176
     0
177
     0
178
     0
270
     2
271
     4
272
     4
273
     2
274
     2
340
3FF
275
     0
280
     0
281
     0
282
     0
283
     1
284
     0
285
     0
286
     0
287
     3
288
     0
  0
ENDTAB
  0
TABLE
  2
BLOCK_RECORD
  5
3F0
330
0
100
AcDbSymbolTable
 70
    40
  0
BLOCK_RECORD
  5
40A
102
{ACAD_XDICTIONARY
360
4B6
102
}
330
3F0
100
AcDbSymbolTableRecord
100
AcDbBlockTableRecord
  2
*MODEL_SPACE
  0
BLOCK_RECORD
  5
408
330
3F0
100
AcDbSymbolTableRecord
100
AcDbBlockTableRecord
  2
*PAPER_SPACE
  0
BLOCK_RECORD
  5
423
330
3F0
100
AcDbSymbolTableRecord
100
AcDbBlockTableRecord
  2
_D
  0
BLOCK_RECORD
  5
425
330
3F0
100
AcDbSymbolTableRecord
100
AcDbBlockTableRecord
  2
_D_1
  0
BLOCK_RECORD
  5
427
330
3F0
100
AcDbSymbolTableRecord
100
AcDbBlockTableRecord
  2
_D_2
  0
BLOCK_RECORD
  5
429
330
3F0
100
AcDbSymbolTableRecord
100
AcDbBlockTableRecord
  2
_D_3
  0
BLOCK_RECORD
  5
42B
330
3F0
100
AcDbSymbolTableRecord
100
AcDbBlockTableRecord
  2
_D_4
  0
BLOCK_RECORD
  5
42D
330
3F0
100
AcDbSymbolTableRecord
100
AcDbBlockTableRecord
  2
_D_5
  0
BLOCK_RECORD
  5
42F
330
3F0
100
AcDbSymbolTableRecord
100
AcDbBlockTableRecord
  2
_D_6
  0
BLOCK_RECORD
  5
431
330
3F0
100
AcDbSymbolTableRecord
100
AcDbBlockTableRecord
  2
_D_7
  0
BLOCK_RECORD
  5
433
330
3F0
100
AcDbSymbolTableRecord
100
AcDbBlockTableRecord
  2
_D_8
  0
BLOCK_RECORD
  5
435
330
3F0
100
AcDbSymbolTableRecord
100
AcDbBlockTableRecord
  2
_D_9
  0
BLOCK_RECORD
  5
437
330
3F0
100
AcDbSymbolTableRecord
100
AcDbBlockTableRecord
  2
_D_10
  0
BLOCK_RECORD
  5
439
330
3F0
100
AcDbSymbolTableRecord
100
AcDbBlockTableRecord
  2
_D_11
  0
BLOCK_RECORD
  5
43B
330
3F0
100
AcDbSymbolTableRecord
100
AcDbBlockTableRecord
  2
_D_12
  0
BLOCK_RECORD
  5
43D
330
3F0
100
AcDbSymbolTableRecord
100
AcDbBlockTableRecord
  2
_D_13
  0
BLOCK_RECORD
  5
43F
330
3F0
100
AcDbSymbolTableRecord
100
AcDbBlockTableRecord
  2
_D_14
  0
BLOCK_RECORD
  5
441
330
3F0
100
AcDbSymbolTableRecord
100
AcDbBlockTableRecord
  2
_D_15
  0
BLOCK_RECORD
  5
443
330
3F0
100
AcDbSymbolTableRecord
100
AcDbBlockTableRecord
  2
_D_16
  0
BLOCK_RECORD
  5
445
330
3F0
100
AcDbSymbolTableRecord
100
AcDbBlockTableRecord
  2
_D_17
  0
BLOCK_RECORD
  5
447
330
3F0
100
AcDbSymbolTableRecord
100
AcDbBlockTableRecord
  2
_D_18
  0
BLOCK_RECORD
  5
449
330
3F0
100
AcDbSymbolTableRecord
100
AcDbBlockTableRecord
  2
_D_19
  0
BLOCK_RECORD
  5
44B
330
3F0
100
AcDbSymbolTableRecord
100
AcDbBlockTableRecord
  2
_D_20
  0
BLOCK_RECORD
  5
44D
330
3F0
100
AcDbSymbolTableRecord
100
AcDbBlockTableRecord
  2
_D_21
  0
BLOCK_RECORD
  5
44F
330
3F0
100
AcDbSymbolTableRecord
100
AcDbBlockTableRecord
  2
SW_NOTE_0
  0
BLOCK_RECORD
  5
451
330
3F0
100
AcDbSymbolTableRecord
100
AcDbBlockTableRecord
  2
SW_CENTERMARKSYMBOL_0
  0
BLOCK_RECORD
  5
453
330
3F0
100
AcDbSymbolTableRecord
100
AcDbBlockTableRecord
  2
SW_CENTERMARKSYMBOL_1
  0
BLOCK_RECORD
  5
455
330
3F0
100
AcDbSymbolTableRecord
100
AcDbBlockTableRecord
  2
SW_CENTERMARKSYMBOL_2
  0
BLOCK_RECORD
  5
457
330
3F0
100
AcDbSymbolTableRecord
100
AcDbBlockTableRecord
  2
SW_CENTERMARKSYMBOL_3
  0
BLOCK_RECORD
  5
459
330
3F0
100
AcDbSymbolTableRecord
100
AcDbBlockTableRecord
  2
SW_CENTERMARKSYMBOL_4
  0
BLOCK_RECORD
  5
45B
330
3F0
100
AcDbSymbolTableRecord
100
AcDbBlockTableRecord
  2
SW_CENTERMARKSYMBOL_5
  0
BLOCK_RECORD
  5
45D
330
3F0
100
AcDbSymbolTableRecord
100
AcDbBlockTableRecord
  2
SW_CENTERMARKSYMBOL_6
  0
BLOCK_RECORD
  5
45F
330
3F0
100
AcDbSymbolTableRecord
100
AcDbBlockTableRecord
  2
_D_22
  0
BLOCK_RECORD
  5
461
330
3F0
100
AcDbSymbolTableRecord
100
AcDbBlockTableRecord
  2
_D_23
  0
BLOCK_RECORD
  5
463
330
3F0
100
AcDbSymbolTableRecord
100
AcDbBlockTableRecord
  2
_D_24
  0
BLOCK_RECORD
  5
465
330
3F0
100
AcDbSymbolTableRecord
100
AcDbBlockTableRecord
  2
_D_25
  0
BLOCK_RECORD
  5
467
330
3F0
100
AcDbSymbolTableRecord
100
AcDbBlockTableRecord
  2
_D_26
  0
BLOCK_RECORD
  5
469
330
3F0
100
AcDbSymbolTableRecord
100
AcDbBlockTableRecord
  2
_D_27
  0
BLOCK_RECORD
  5
46B
330
3F0
100
AcDbSymbolTableRecord
100
AcDbBlockTableRecord
  2
SW_CENTERMARKSYMBOL_7
  0
BLOCK_RECORD
  5
46D
330
3F0
100
AcDbSymbolTableRecord
100
AcDbBlockTableRecord
  2
SW_CENTERMARKSYMBOL_8
  0
BLOCK_RECORD
  5
46F
330
3F0
100
AcDbSymbolTableRecord
100
AcDbBlockTableRecord
  2
_D_28
  0
BLOCK_RECORD
  5
471
330
3F0
100
AcDbSymbolTableRecord
100
AcDbBlockTableRecord
  2
_D_29
  0
ENDTAB
  0
ENDSEC
  0
SECTION
  2
BLOCKS
  0
BLOCK
  5
420
330
40A
100
AcDbEntity
  8
0
100
AcDbBlockBegin
  2
*MODEL_SPACE
 70
     0
 10
0.0
 20
0.0
 30
0.0
  3
*MODEL_SPACE
  1

  0
ENDBLK
  5
21
330
40A
100
AcDbEntity
  8
0
100
AcDbBlockEnd
  0
BLOCK
  5
421
330
408
100
AcDbEntity
 67
     1
  8
0
100
AcDbBlockBegin
  2
*PAPER_SPACE
 70
     0
 10
0.0
 20
0.0
 30
0.0
  3
*PAPER_SPACE
  1

  0
ENDBLK
  5
1D
330
408
100
AcDbEntity
 67
     1
  8
0
100
AcDbBlockEnd
  0
BLOCK
  5
422
330
423
100
AcDbEntity
  8
0
100
AcDbBlockBegin
  2
_D
 70
     0
 10
0.0
 20
0.0
 30
0.0
  3
_D
  1

  0
SOLID
  5
F7
330
423
100
AcDbEntity
  8
0
  6
CONTINUOUS
 62
     7
100
AcDbTrace
 10
18.0330481245
 20
377.7068665702
 30
0.0
 11
17.6484327399
 21
375.2068665702
 31
0.0
 12
18.4176635091
 22
375.2068665702
 32
0.0
 13
18.4176635091
 23
375.2068665702
 33
0.0
  0
SOLID
  5
F8
330
423
100
AcDbEntity
  8
0
  6
CONTINUOUS
 62
     7
100
AcDbTrace
 10
18.0330481245
 20
147.7068665702
 30
0.0
 11
18.4176635091
 21
150.2068665702
 31
0.0
 12
17.6484327399
 22
150.2068665702
 32
0.0
 13
17.6484327399
 23
150.2068665702
 33
0.0
  0
LINE
  5
F9
330
423
100
AcDbEntity
  8
0
  6
CONTINUOUS
 62
     7
100
AcDbLine
 10
74.4382176343
 20
377.7068665702
 30
0.0
 11
17.0330481245
 21
377.7068665702
 31
0.0
  0
LINE
  5
FA
330
423
100
AcDbEntity
  8
0
  6
CONTINUOUS
 62
     7
100
AcDbLine
 10
74.4382176343
 20
147.7068665702
 30
0.0
 11
17.0330481245
 21
147.7068665702
 31
0.0
  0
LINE
  5
FB
330
423
100
AcDbEntity
  8
0
  6
CONTINUOUS
 62
     7
100
AcDbLine
 10
18.0330481245
 20
377.7068665702
 30
0.0
 11
18.0330481245
 21
147.7068665702
 31
0.0
  0
TEXT
  5
FC
330
423
100
AcDbEntity
  8
0
  6
CONTINUOUS
 62
     7
100
AcDbText
 10
-3202.1363011308
 20
259.8422831747
 30
8.1457613325
 40
2.5
  1
230
 50
90.0
 41
0.7
 11
-3204.6363011308
 21
259.8422831747
 31
8.1457613325
100
AcDbText
 73
     3
  0
ENDBLK
  5
F6
330
423
100
AcDbEntity
  8
0
100
AcDbBlockEnd
  0
BLOCK
  5
424
330
425
100
AcDbEntity
  8
0
100
AcDbBlockBegin
  2
_D_1
 70
     0
 10
0.0
 20
0.0
 30
0.0
  3
_D_1
  1

  0
SOLID
  5
101
330
425
100
AcDbEntity
  8
0
  6
CONTINUOUS
 62
     7
100
AcDbTrace
 10
205.0725226402
 20
342.7068665702
 30
0.0
 11
204.6879072556
 21
340.2068665702
 31
0.0
 12
205.4571380249
 22
340.2068665702
 32
0.0
 13
205.4571380249
 23
340.2068665702
 33
0.0
  0
SOLID
  5
102
330
425
100
AcDbEntity
  8
0
  6
CONTINUOUS
 62
     7
100
AcDbTrace
 10
205.0725226402
 20
182.7068665702
 30
0.0
 11
205.4571380249
 21
185.2068665702
 31
0.0
 12
204.6879072556
 22
185.2068665702
 32
0.0
 13
204.6879072556
 23
185.2068665702
 33
0.0
  0
LINE
  5
103
330
425
100
AcDbEntity
  8
0
  6
CONTINUOUS
 62
     7
100
AcDbLine
 10
147.0240040719
 20
342.7068665702
 30
0.0
 11
206.0725226402
 21
342.7068665702
 31
0.0
  0
LINE
  5
104
330
425
100
AcDbEntity
  8
0
  6
CONTINUOUS
 62
     7
100
AcDbLine
 10
147.0240040719
 20
182.7068665702
 30
0.0
 11
206.0725226402
 21
182.7068665702
 31
0.0
  0
LINE
  5
105
330
425
100
AcDbEntity
  8
0
  6
CONTINUOUS
 62
     7
100
AcDbLine
 10
205.0725226402
 20
342.7068665702
 30
0.0
 11
205.0725226402
 21
182.7068665702
 31
0.0
  0
TEXT
  5
106
330
425
100
AcDbEntity
  8
0
  6
CONTINUOUS
 62
     7
100
AcDbText
 10
-3015.096826615
 20
259.8422831747
 30
8.1457613325
 40
2.5
  1
160
 50
90.0
 41
0.7
 11
-3017.596826615
 21
259.8422831747
 31
8.1457613325
100
AcDbText
 73
     3
  0
ENDBLK
  5
100
330
425
100
AcDbEntity
  8
0
100
AcDbBlockEnd
  0
BLOCK
  5
426
330
427
100
AcDbEntity
  8
0
100
AcDbBlockBegin
  2
_D_2
 70
     0
 10
0.0
 20
0.0
 30
0.0
  3
_D_2
  1

  0
SOLID
  5
10B
330
427
100
AcDbEntity
  8
0
  6
CONTINUOUS
 62
     7
100
AcDbTrace
 10
189.2382176343
 20
290.7068665702
 30
0.0
 11
188.8536022497
 21
288.2068665702
 31
0.0
 12
189.6228330189
 22
288.2068665702
 32
0.0
 13
189.6228330189
 23
288.2068665702
 33
0.0
  0
SOLID
  5
10C
330
427
100
AcDbEntity
  8
0
  6
CONTINUOUS
 62
     7
100
AcDbTrace
 10
189.2382176343
 20
182.7068665702
 30
0.0
 11
189.6228330189
 21
185.2068665702
 31
0.0
 12
188.8536022497
 22
185.2068665702
 32
0.0
 13
188.8536022497
 23
185.2068665702
 33
0.0
  0
LINE
  5
10D
330
427
100
AcDbEntity
  8
0
  6
CONTINUOUS
 62
     7
100
AcDbLine
 10
134.4382176343
 20
290.7068665702
 30
0.0
 11
190.2382176343
 21
290.7068665702
 31
0.0
  0
LINE
  5
10E
330
427
100
AcDbEntity
  8
0
  6
CONTINUOUS
 62
     7
100
AcDbLine
 10
147.0240040719
 20
182.7068665702
 30
0.0
 11
190.2382176343
 21
182.7068665702
 31
0.0
  0
LINE
  5
10F
330
427
100
AcDbEntity
  8
0
  6
CONTINUOUS
 62
     7
100
AcDbLine
 10
189.2382176343
 20
290.7068665702
 30
0.0
 11
189.2382176343
 21
182.7068665702
 31
0.0
  0
TEXT
  5
110
330
427
100
AcDbEntity
  8
0
  6
CONTINUOUS
 62
     7
100
AcDbText
 10
-3030.931131621
 20
233.8422831747
 30
8.1457613325
 40
2.5
  1
108
 50
90.0
 41
0.7
 11
-3033.431131621
 21
233.8422831747
 31
8.1457613325
100
AcDbText
 73
     3
  0
ENDBLK
  5
10A
330
427
100
AcDbEntity
  8
0
100
AcDbBlockEnd
  0
BLOCK
  5
428
330
429
100
AcDbEntity
  8
0
100
AcDbBlockBegin
  2
_D_3
 70
     0
 10
0.0
 20
0.0
 30
0.0
  3
_D_3
  1

  0
SOLID
  5
115
330
429
100
AcDbEntity
  8
0
  6
CONTINUOUS
 62
     7
100
AcDbTrace
 10
204.9752374702
 20
377.7068665702
 30
0.0
 11
204.5906220856
 21
375.2068665702
 31
0.0
 12
205.3598528548
 22
375.2068665702
 32
0.0
 13
205.3598528548
 23
375.2068665702
 33
0.0
  0
SOLID
  5
116
330
429
100
AcDbEntity
  8
0
  6
CONTINUOUS
 62
     7
100
AcDbTrace
 10
204.9752374702
 20
342.7068665702
 30
0.0
 11
205.3598528548
 21
345.2068665702
 31
0.0
 12
204.5906220856
 22
345.2068665702
 32
0.0
 13
204.5906220856
 23
345.2068665702
 33
0.0
  0
LINE
  5
117
330
429
100
AcDbEntity
  8
0
  6
CONTINUOUS
 62
     7
100
AcDbLine
 10
77.4382176343
 20
377.7068665702
 30
0.0
 11
205.9752374702
 21
377.7068665702
 31
0.0
  0
LINE
  5
118
330
429
100
AcDbEntity
  8
0
  6
CONTINUOUS
 62
     7
100
AcDbLine
 10
147.0240040719
 20
342.7068665702
 30
0.0
 11
205.9752374702
 21
342.7068665702
 31
0.0
  0
LINE
  5
119
330
429
100
AcDbEntity
  8
0
  6
CONTINUOUS
 62
     7
100
AcDbLine
 10
204.9752374702
 20
377.7068665702
 30
0.0
 11
204.9752374702
 21
342.7068665702
 31
0.0
  0
TEXT
  5
11A
330
429
100
AcDbEntity
  8
0
  6
CONTINUOUS
 62
     7
100
AcDbText
 10
-3015.1941117851
 20
358.2971443453
 30
8.1457613325
 40
2.5
  1
35
 50
90.0
 41
0.7
 11
-3017.6941117851
 21
358.2971443453
 31
8.1457613325
100
AcDbText
 73
     3
  0
ENDBLK
  5
114
330
429
100
AcDbEntity
  8
0
100
AcDbBlockEnd
  0
BLOCK
  5
42A
330
42B
100
AcDbEntity
  8
0
100
AcDbBlockBegin
  2
_D_4
 70
     0
 10
0.0
 20
0.0
 30
0.0
  3
_D_4
  1

  0
SOLID
  5
11F
330
42B
100
AcDbEntity
  8
0
  6
CONTINUOUS
 62
     7
100
AcDbTrace
 10
176.019530447
 20
290.7068665702
 30
0.0
 11
175.6349150624
 21
288.2068665702
 31
0.0
 12
176.4041458316
 22
288.2068665702
 32
0.0
 13
176.4041458316
 23
288.2068665702
 33
0.0
  0
SOLID
  5
120
330
42B
100
AcDbEntity
  8
0
  6
CONTINUOUS
 62
     7
100
AcDbTrace
 10
176.019530447
 20
212.7068665702
 30
0.0
 11
176.4041458316
 21
215.2068665702
 31
0.0
 12
175.6349150624
 22
215.2068665702
 32
0.0
 13
175.6349150624
 23
215.2068665702
 33
0.0
  0
LINE
  5
121
330
42B
100
AcDbEntity
  8
0
  6
CONTINUOUS
 62
     7
100
AcDbLine
 10
134.4382176343
 20
290.7068665702
 30
0.0
 11
177.019530447
 21
290.7068665702
 31
0.0
  0
LINE
  5
122
330
42B
100
AcDbEntity
  8
0
  6
CONTINUOUS
 62
     7
100
AcDbLine
 10
148.0382176343
 20
212.7068665702
 30
0.0
 11
177.019530447
 21
212.7068665702
 31
0.0
  0
LINE
  5
123
330
42B
100
AcDbEntity
  8
0
  6
CONTINUOUS
 62
     7
100
AcDbLine
 10
176.019530447
 20
290.7068665702
 30
0.0
 11
176.019530447
 21
212.7068665702
 31
0.0
  0
TEXT
  5
124
330
42B
100
AcDbEntity
  8
0
  6
CONTINUOUS
 62
     7
100
AcDbText
 10
-3044.1498188083
 20
243.6912423227
 30
8.1457613325
 40
2.5
  1
RZ&PZ 
 50
90.0
 41
0.7
 11
-3046.6498188083
 21
243.6912423227
 31
8.1457613325
100
AcDbText
 73
     3
  0
TEXT
  5
125
330
42B
100
AcDbEntity
  8
0
  6
CONTINUOUS
 62
     7
100
AcDbText
 10
-3044.1498188083
 20
255.9030475322
 30
8.1457613325
 40
2.5
  1
78
 50
90.0
 41
0.7
 11
-3046.6498188083
 21
255.9030475322
 31
8.1457613325
100
AcDbText
 73
     3
  0
ENDBLK
  5
11E
330
42B
100
AcDbEntity
  8
0
100
AcDbBlockEnd
  0
BLOCK
  5
42C
330
42D
100
AcDbEntity
  8
0
100
AcDbBlockBegin
  2
_D_5
 70
     0
 10
0.0
 20
0.0
 30
0.0
  3
_D_5
  1

  0
SOLID
  5
12B
330
42D
100
AcDbEntity
  8
0
  6
CONTINUOUS
 62
     7
100
AcDbTrace
 10
151.2025546563
 20
207.5657457636
 30
0.0
 11
149.7619712051
 21
209.6448437204
 31
0.0
 12
149.2036566031
 22
209.1156927197
 32
0.0
 13
149.2036566031
 23
209.1156927197
 33
0.0
  0
SOLID
  5
12C
330
42D
100
AcDbEntity
  8
0
  6
CONTINUOUS
 62
     7
100
AcDbTrace
 10
155.6738806122
 20
202.8479873768
 30
0.0
 11
157.1144640635
 21
200.76888942
 31
0.0
 12
157.6727786655
 22
201.2980404207
 32
0.0
 13
157.6727786655
 23
201.2980404207
 33
0.0
  0
LINE
  5
12D
330
42D
100
AcDbEntity
  8
0
  6
CONTINUOUS
 62
     7
100
AcDbLine
 10
155.6738806122
 20
202.8479873768
 30
0.0
 11
169.9761926227
 21
187.7574184709
 31
0.0
  0
LINE
  5
12E
330
42D
100
AcDbEntity
  8
0
  6
CONTINUOUS
 62
     7
100
AcDbLine
 10
151.2025546563
 20
207.5657457636
 30
0.0
 11
147.895360902
 21
211.055212026
 31
0.0
  0
LINE
  5
12F
330
42D
100
AcDbEntity
  8
0
  6
CONTINUOUS
 62
     7
100
AcDbLine
 10
155.6738806122
 20
202.8479873768
 30
0.0
 11
151.2025546563
 21
207.5657457636
 31
0.0
  0
TEXT
  5
130
330
42D
100
AcDbEntity
  8
0
  6
CONTINUOUS
 62
     7
100
AcDbText
 10
2501.406001375838
 20
2409.004677051937
 30
8.1457613325
 40
2.5
  1
%%c
 50
313.4638126908001
 41
0.7
 11
2503.2205238323
 21
2410.7244178042
 31
8.1457613325
100
AcDbText
 73
     3
  0
TEXT
  5
131
330
42D
100
AcDbEntity
  8
0
  6
CONTINUOUS
 62
     7
100
AcDbText
 10
2503.918399916338
 20
2406.363905526936
 30
8.1457613325
 40
2.5
  1
6.5
 50
313.4638126908001
 41
0.7
 11
2505.7329223728
 21
2408.0836462792
 31
8.1457613325
100
AcDbText
 73
     3
  0
ENDBLK
  5
12A
330
42D
100
AcDbEntity
  8
0
100
AcDbBlockEnd
  0
BLOCK
  5
42E
330
42F
100
AcDbEntity
  8
0
100
AcDbBlockBegin
  2
_D_6
 70
     0
 10
0.0
 20
0.0
 30
0.0
  3
_D_6
  1

  0
SOLID
  5
136
330
42F
100
AcDbEntity
  8
0
  6
CONTINUOUS
 62
     7
100
AcDbTrace
 10
118.0696098396
 20
292.6142928628
 30
0.0
 11
120.3194886121
 21
293.7701364955
 31
0.0
 12
119.8680267677
 22
294.3929512186
 32
0.0
 13
119.8680267677
 23
294.3929512186
 33
0.0
  0
SOLID
  5
137
330
42F
100
AcDbEntity
  8
0
  6
CONTINUOUS
 62
     7
100
AcDbTrace
 10
112.8068254289
 20
288.7994402776
 30
0.0
 11
110.5569466565
 21
287.6435966449
 31
0.0
 12
111.0084085009
 22
287.0207819217
 32
0.0
 13
111.0084085009
 23
287.0207819217
 33
0.0
  0
LINE
  5
138
330
42F
100
AcDbEntity
  8
0
  6
CONTINUOUS
 62
     7
100
AcDbLine
 10
112.8068254289
 20
288.7994402776
 30
0.0
 11
99.0351320243
 21
278.8167056476
 31
0.0
  0
LINE
  5
139
330
42F
100
AcDbEntity
  8
0
  6
CONTINUOUS
 62
     7
100
AcDbLine
 10
118.0696098396
 20
292.6142928628
 30
0.0
 11
121.9622018594
 21
295.4359293902
 31
0.0
  0
LINE
  5
13A
330
42F
100
AcDbEntity
  8
0
  6
CONTINUOUS
 62
     7
100
AcDbLine
 10
112.8068254289
 20
288.7994402776
 30
0.0
 11
118.0696098396
 21
292.6142928628
 31
0.0
  0
TEXT
  5
13B
330
42F
100
AcDbEntity
  8
0
  6
CONTINUOUS
 62
     7
100
AcDbText
 10
-1790.875649320606
 20
2886.045366688133
 30
8.1457613325
 40
2.5
  1
%%c
 50
35.9373581577
 41
0.7
 11
-1792.3429003149
 21
2888.0695145384
 31
8.1457613325
100
AcDbText
 73
     3
  0
TEXT
  5
13C
330
42F
100
AcDbEntity
  8
0
  6
CONTINUOUS
 62
     7
100
AcDbText
 10
-1787.928545513806
 20
2888.190220954933
 30
8.1457613325
 40
2.5
  1
6.5
 50
35.9373581577
 41
0.7
 11
-1789.3957965081
 21
2890.2143688052
 31
8.1457613325
100
AcDbText
 73
     3
  0
ENDBLK
  5
135
330
42F
100
AcDbEntity
  8
0
100
AcDbBlockEnd
  0
BLOCK
  5
430
330
431
100
AcDbEntity
  8
0
100
AcDbBlockBegin
  2
_D_7
 70
     0
 10
0.0
 20
0.0
 30
0.0
  3
_D_7
  1

  0
SOLID
  5
141
330
431
100
AcDbEntity
  8
0
  6
CONTINUOUS
 62
     7
100
AcDbTrace
 10
137.0342785184
 20
271.9129648474
 30
0.0
 11
139.0425343157
 21
273.4507677108
 31
0.0
 12
138.4874372332
 22
273.9832930204
 32
0.0
 13
138.4874372332
 23
273.9832930204
 33
0.0
  0
SOLID
  5
142
330
431
100
AcDbEntity
  8
0
  6
CONTINUOUS
 62
     7
100
AcDbTrace
 10
131.8421567502
 20
266.5007682929
 30
0.0
 11
129.8339009529
 21
264.9629654295
 31
0.0
 12
130.3889980354
 22
264.43044012
 32
0.0
 13
130.3889980354
 23
264.43044012
 33
0.0
  0
LINE
  5
143
330
431
100
AcDbEntity
  8
0
  6
CONTINUOUS
 62
     7
100
AcDbLine
 10
131.8421567502
 20
266.5007682929
 30
0.0
 11
122.001283754
 21
256.2427771861
 31
0.0
  0
LINE
  5
144
330
431
100
AcDbEntity
  8
0
  6
CONTINUOUS
 62
     7
100
AcDbLine
 10
137.0342785184
 20
271.9129648474
 30
0.0
 11
140.3625617031
 21
275.3823216131
 31
0.0
  0
LINE
  5
145
330
431
100
AcDbEntity
  8
0
  6
CONTINUOUS
 62
     7
100
AcDbLine
 10
131.8421567502
 20
266.5007682929
 30
0.0
 11
137.0342785184
 21
271.9129648474
 31
0.0
  0
TEXT
  5
146
330
431
100
AcDbEntity
  8
0
  6
CONTINUOUS
 62
     7
100
AcDbText
 10
-2201.744216326532
 20
2485.498398844546
 30
8.1457613325
 40
2.5
  1
%%c
 50
46.1889068429
 41
0.7
 11
-2203.5482818447
 21
2487.2291061006
 31
8.1457613325
100
AcDbText
 73
     3
  0
TEXT
  5
147
330
431
100
AcDbEntity
  8
0
  6
CONTINUOUS
 62
     7
100
AcDbText
 10
-2199.225880438432
 20
2488.133508904546
 30
8.1457613325
 40
2.5
  1
7.5
 50
46.1889068429
 41
0.7
 11
-2201.0299459566
 21
2489.8642161606
 31
8.1457613325
100
AcDbText
 73
     3
  0
ENDBLK
  5
140
330
431
100
AcDbEntity
  8
0
100
AcDbBlockEnd
  0
BLOCK
  5
432
330
433
100
AcDbEntity
  8
0
100
AcDbBlockBegin
  2
_D_8
 70
     0
 10
0.0
 20
0.0
 30
0.0
  3
_D_8
  1

  0
SOLID
  5
14C
330
433
100
AcDbEntity
  8
0
  6
CONTINUOUS
 62
     7
100
AcDbTrace
 10
170.7919064733
 20
290.7068665702
 30
0.0
 11
170.4072910886
 21
288.2068665702
 31
0.0
 12
171.1765218579
 22
288.2068665702
 32
0.0
 13
171.1765218579
 23
288.2068665702
 33
0.0
  0
SOLID
  5
14D
330
433
100
AcDbEntity
  8
0
  6
CONTINUOUS
 62
     7
100
AcDbTrace
 10
170.7919064733
 20
269.2068665702
 30
0.0
 11
171.1765218579
 21
271.7068665702
 31
0.0
 12
170.4072910886
 22
271.7068665702
 32
0.0
 13
170.4072910886
 23
271.7068665702
 33
0.0
  0
LINE
  5
14E
330
433
100
AcDbEntity
  8
0
  6
CONTINUOUS
 62
     7
100
AcDbLine
 10
134.4382176343
 20
290.7068665702
 30
0.0
 11
171.7919064733
 21
290.7068665702
 31
0.0
  0
LINE
  5
14F
330
433
100
AcDbEntity
  8
0
  6
CONTINUOUS
 62
     7
100
AcDbLine
 10
140.6882176343
 20
269.2068665702
 30
0.0
 11
171.7919064733
 21
269.2068665702
 31
0.0
  0
LINE
  5
150
330
433
100
AcDbEntity
  8
0
  6
CONTINUOUS
 62
     7
100
AcDbLine
 10
170.7919064733
 20
290.7068665702
 30
0.0
 11
170.7919064733
 21
269.2068665702
 31
0.0
  0
TEXT
  5
151
330
433
100
AcDbEntity
  8
0
  6
CONTINUOUS
 62
     7
100
AcDbText
 10
-3049.377442782
 20
276.6148527641
 30
8.1457613325
 40
2.5
  1
21.5
 50
90.0
 41
0.7
 11
-3051.877442782
 21
276.6148527641
 31
8.1457613325
100
AcDbText
 73
     3
  0
ENDBLK
  5
14B
330
433
100
AcDbEntity
  8
0
100
AcDbBlockEnd
  0
BLOCK
  5
434
330
435
100
AcDbEntity
  8
0
100
AcDbBlockBegin
  2
_D_9
 70
     0
 10
0.0
 20
0.0
 30
0.0
  3
_D_9
  1

  0
SOLID
  5
157
330
435
100
AcDbEntity
  8
0
  6
CONTINUOUS
 62
     7
100
AcDbTrace
 10
176.019530447
 20
212.7068665702
 30
0.0
 11
176.4041458316
 21
215.2068665702
 31
0.0
 12
175.6349150624
 22
215.2068665702
 32
0.0
 13
175.6349150624
 23
215.2068665702
 33
0.0
  0
SOLID
  5
158
330
435
100
AcDbEntity
  8
0
  6
CONTINUOUS
 62
     7
100
AcDbTrace
 10
176.019530447
 20
205.2068665702
 30
0.0
 11
175.6349150624
 21
202.7068665702
 31
0.0
 12
176.4041458316
 22
202.7068665702
 32
0.0
 13
176.4041458316
 23
202.7068665702
 33
0.0
  0
LINE
  5
159
330
435
100
AcDbEntity
  8
0
  6
CONTINUOUS
 62
     7
100
AcDbLine
 10
148.0382176343
 20
212.7068665702
 30
0.0
 11
177.019530447
 21
212.7068665702
 31
0.0
  0
LINE
  5
15A
330
435
100
AcDbEntity
  8
0
  6
CONTINUOUS
 62
     7
100
AcDbLine
 10
159.1882176343
 20
205.2068665702
 30
0.0
 11
177.019530447
 21
205.2068665702
 31
0.0
  0
LINE
  5
15B
330
435
100
AcDbEntity
  8
0
  6
CONTINUOUS
 62
     7
100
AcDbLine
 10
176.019530447
 20
212.7068665702
 30
0.0
 11
176.019530447
 21
217.5145588779
 31
0.0
  0
LINE
  5
15C
330
435
100
AcDbEntity
  8
0
  6
CONTINUOUS
 62
     7
100
AcDbLine
 10
176.019530447
 20
212.7068665702
 30
0.0
 11
176.019530447
 21
205.2068665702
 31
0.0
  0
LINE
  5
15D
330
435
100
AcDbEntity
  8
0
  6
CONTINUOUS
 62
     7
100
AcDbLine
 10
176.019530447
 20
205.2068665702
 30
0.0
 11
176.019530447
 21
200.3991742625
 31
0.0
  0
TEXT
  5
15E
330
435
100
AcDbEntity
  8
0
  6
CONTINUOUS
 62
     7
100
AcDbText
 10
-3044.1498188083
 20
206.5697138182
 30
8.1457613325
 40
2.5
  1
7.5
 50
90.0
 41
0.7
 11
-3046.6498188083
 21
206.5697138182
 31
8.1457613325
100
AcDbText
 73
     3
  0
ENDBLK
  5
156
330
435
100
AcDbEntity
  8
0
100
AcDbBlockEnd
  0
BLOCK
  5
436
330
437
100
AcDbEntity
  8
0
100
AcDbBlockBegin
  2
_D_10
 70
     0
 10
0.0
 20
0.0
 30
0.0
  3
_D_10
  1

  0
SOLID
  5
163
330
437
100
AcDbEntity
  8
0
  6
CONTINUOUS
 62
     7
100
AcDbTrace
 10
134.4382176343
 20
238.610184354
 30
0.0
 11
136.9382176343
 21
238.2255689694
 31
0.0
 12
136.9382176343
 22
238.9947997386
 32
0.0
 13
136.9382176343
 23
238.9947997386
 33
0.0
  0
SOLID
  5
164
330
437
100
AcDbEntity
  8
0
  6
CONTINUOUS
 62
     7
100
AcDbTrace
 10
153.4382176343
 20
238.610184354
 30
0.0
 11
150.9382176343
 21
238.9947997386
 31
0.0
 12
150.9382176343
 22
238.2255689694
 32
0.0
 13
150.9382176343
 23
238.2255689694
 33
0.0
  0
LINE
  5
165
330
437
100
AcDbEntity
  8
0
  6
CONTINUOUS
 62
     7
100
AcDbLine
 10
134.4382176343
 20
226.3068665702
 30
0.0
 11
134.4382176343
 21
239.610184354
 31
0.0
  0
LINE
  5
166
330
437
100
AcDbEntity
  8
0
  6
CONTINUOUS
 62
     7
100
AcDbLine
 10
153.4382176343
 20
210.9568665702
 30
0.0
 11
153.4382176343
 21
239.610184354
 31
0.0
  0
LINE
  5
167
330
437
100
AcDbEntity
  8
0
  6
CONTINUOUS
 62
     7
100
AcDbLine
 10
134.4382176343
 20
238.610184354
 30
0.0
 11
153.4382176343
 21
238.610184354
 31
0.0
  0
TEXT
  5
168
330
437
100
AcDbEntity
  8
0
  6
CONTINUOUS
 62
     7
100
AcDbText
 10
142.0284954095
 20
3458.7795336093
 30
8.1457613325
 40
2.5
  1
19
 41
0.7
 11
142.0284954095
 21
3461.2795336093
 31
8.1457613325
100
AcDbText
 73
     3
  0
ENDBLK
  5
162
330
437
100
AcDbEntity
  8
0
100
AcDbBlockEnd
  0
BLOCK
  5
438
330
439
100
AcDbEntity
  8
0
100
AcDbBlockBegin
  2
_D_11
 70
     0
 10
0.0
 20
0.0
 30
0.0
  3
_D_11
  1

  0
SOLID
  5
16D
330
439
100
AcDbEntity
  8
0
  6
CONTINUOUS
 62
     7
100
AcDbTrace
 10
115.4382176343
 20
238.610184354
 30
0.0
 11
117.9382176343
 21
238.2255689694
 31
0.0
 12
117.9382176343
 22
238.9947997386
 32
0.0
 13
117.9382176343
 23
238.9947997386
 33
0.0
  0
SOLID
  5
16E
330
439
100
AcDbEntity
  8
0
  6
CONTINUOUS
 62
     7
100
AcDbTrace
 10
134.4382176343
 20
238.610184354
 30
0.0
 11
131.9382176343
 21
238.9947997386
 31
0.0
 12
131.9382176343
 22
238.2255689694
 32
0.0
 13
131.9382176343
 23
238.2255689694
 33
0.0
  0
LINE
  5
16F
330
439
100
AcDbEntity
  8
0
  6
CONTINUOUS
 62
     7
100
AcDbLine
 10
115.4382176343
 20
210.9568665702
 30
0.0
 11
115.4382176343
 21
239.610184354
 31
0.0
  0
LINE
  5
170
330
439
100
AcDbEntity
  8
0
  6
CONTINUOUS
 62
     7
100
AcDbLine
 10
134.4382176343
 20
226.3068665702
 30
0.0
 11
134.4382176343
 21
239.610184354
 31
0.0
  0
LINE
  5
171
330
439
100
AcDbEntity
  8
0
  6
CONTINUOUS
 62
     7
100
AcDbLine
 10
115.4382176343
 20
238.610184354
 30
0.0
 11
134.4382176343
 21
238.610184354
 31
0.0
  0
TEXT
  5
172
330
439
100
AcDbEntity
  8
0
  6
CONTINUOUS
 62
     7
100
AcDbText
 10
123.0284954094
 20
3458.7795336093
 30
8.1457613325
 40
2.5
  1
19
 41
0.7
 11
123.0284954094
 21
3461.2795336093
 31
8.1457613325
100
AcDbText
 73
     3
  0
ENDBLK
  5
16C
330
439
100
AcDbEntity
  8
0
100
AcDbBlockEnd
  0
BLOCK
  5
43A
330
43B
100
AcDbEntity
  8
0
100
AcDbBlockBegin
  2
_D_12
 70
     0
 10
0.0
 20
0.0
 30
0.0
  3
_D_12
  1

  0
SOLID
  5
177
330
43B
100
AcDbEntity
  8
0
  6
CONTINUOUS
 62
     7
100
AcDbTrace
 10
74.4382176343
 20
164.7406206727
 30
0.0
 11
71.9382176343
 21
165.1252360573
 31
0.0
 12
71.9382176343
 22
164.3560052881
 32
0.0
 13
71.9382176343
 23
164.3560052881
 33
0.0
  0
SOLID
  5
178
330
43B
100
AcDbEntity
  8
0
  6
CONTINUOUS
 62
     7
100
AcDbTrace
 10
77.4382176343
 20
164.7406206727
 30
0.0
 11
79.9382176343
 21
164.3560052881
 31
0.0
 12
79.9382176343
 22
165.1252360573
 32
0.0
 13
79.9382176343
 23
165.1252360573
 33
0.0
  0
LINE
  5
179
330
43B
100
AcDbEntity
  8
0
  6
CONTINUOUS
 62
     7
100
AcDbLine
 10
74.4382176343
 20
147.7068665702
 30
0.0
 11
74.4382176343
 21
165.7406206727
 31
0.0
  0
LINE
  5
17A
330
43B
100
AcDbEntity
  8
0
  6
CONTINUOUS
 62
     7
100
AcDbLine
 10
77.4382176343
 20
147.7068665702
 30
0.0
 11
77.4382176343
 21
165.7406206727
 31
0.0
  0
LINE
  5
17B
330
43B
100
AcDbEntity
  8
0
  6
CONTINUOUS
 62
     7
100
AcDbLine
 10
74.4382176343
 20
164.7406206727
 30
0.0
 11
69.6305253266
 21
164.7406206727
 31
0.0
  0
LINE
  5
17C
330
43B
100
AcDbEntity
  8
0
  6
CONTINUOUS
 62
     7
100
AcDbLine
 10
74.4382176343
 20
164.7406206727
 30
0.0
 11
77.4382176343
 21
164.7406206727
 31
0.0
  0
LINE
  5
17D
330
43B
100
AcDbEntity
  8
0
  6
CONTINUOUS
 62
     7
100
AcDbLine
 10
77.4382176343
 20
164.7406206727
 30
0.0
 11
88.2693119173
 21
164.7406206727
 31
0.0
  0
TEXT
  5
17E
330
43B
100
AcDbEntity
  8
0
  6
CONTINUOUS
 62
     7
100
AcDbText
 10
86.3595896925
 20
3384.909969928
 30
8.1457613325
 40
2.5
  1
3
 41
0.7
 11
86.3595896925
 21
3387.409969928
 31
8.1457613325
100
AcDbText
 73
     3
  0
ENDBLK
  5
176
330
43B
100
AcDbEntity
  8
0
100
AcDbBlockEnd
  0
BLOCK
  5
43C
330
43D
100
AcDbEntity
  8
0
100
AcDbBlockBegin
  2
_D_13
 70
     0
 10
0.0
 20
0.0
 30
0.0
  3
_D_13
  1

  0
SOLID
  5
183
330
43D
100
AcDbEntity
  8
0
  6
CONTINUOUS
 62
     7
100
AcDbTrace
 10
74.4382176343
 20
140.2736604634
 30
0.0
 11
76.9382176343
 21
139.8890450788
 31
0.0
 12
76.9382176343
 22
140.658275848
 32
0.0
 13
76.9382176343
 23
140.658275848
 33
0.0
  0
SOLID
  5
184
330
43D
100
AcDbEntity
  8
0
  6
CONTINUOUS
 62
     7
100
AcDbTrace
 10
134.4382176343
 20
140.2736604634
 30
0.0
 11
131.9382176343
 21
140.658275848
 31
0.0
 12
131.9382176343
 22
139.8890450788
 32
0.0
 13
131.9382176343
 23
139.8890450788
 33
0.0
  0
LINE
  5
185
330
43D
100
AcDbEntity
  8
0
  6
CONTINUOUS
 62
     7
100
AcDbLine
 10
74.4382176343
 20
151.7068665702
 30
0.0
 11
74.4382176343
 21
139.2736604634
 31
0.0
  0
LINE
  5
186
330
43D
100
AcDbEntity
  8
0
  6
CONTINUOUS
 62
     7
100
AcDbLine
 10
134.4382176343
 20
199.1068665702
 30
0.0
 11
134.4382176343
 21
139.2736604634
 31
0.0
  0
LINE
  5
187
330
43D
100
AcDbEntity
  8
0
  6
CONTINUOUS
 62
     7
100
AcDbLine
 10
74.4382176343
 20
140.2736604634
 30
0.0
 11
134.4382176343
 21
140.2736604634
 31
0.0
  0
TEXT
  5
188
330
43D
100
AcDbEntity
  8
0
  6
CONTINUOUS
 62
     7
100
AcDbText
 10
101.7680785599
 20
3360.4430097187
 30
8.1457613325
 40
2.5
  1
DM
 41
0.7
 11
101.7680785599
 21
3362.9430097187
 31
8.1457613325
100
AcDbText
 73
     3
  0
ENDBLK
  5
182
330
43D
100
AcDbEntity
  8
0
100
AcDbBlockEnd
  0
BLOCK
  5
43E
330
43F
100
AcDbEntity
  8
0
100
AcDbBlockBegin
  2
_D_14
 70
     0
 10
0.0
 20
0.0
 30
0.0
  3
_D_14
  1

  0
SOLID
  5
18D
330
43F
100
AcDbEntity
  8
0
  6
CONTINUOUS
 62
     7
100
AcDbTrace
 10
134.4382176343
 20
136.2736604634
 30
0.0
 11
136.9382176343
 21
135.8890450788
 31
0.0
 12
136.9382176343
 22
136.658275848
 32
0.0
 13
136.9382176343
 23
136.658275848
 33
0.0
  0
SOLID
  5
18E
330
43F
100
AcDbEntity
  8
0
  6
CONTINUOUS
 62
     7
100
AcDbTrace
 10
164.4382176343
 20
136.2736604634
 30
0.0
 11
161.9382176343
 21
136.658275848
 31
0.0
 12
161.9382176343
 22
135.8890450788
 32
0.0
 13
161.9382176343
 23
135.8890450788
 33
0.0
  0
LINE
  5
18F
330
43F
100
AcDbEntity
  8
0
  6
CONTINUOUS
 62
     7
100
AcDbLine
 10
134.4382176343
 20
199.1068665702
 30
0.0
 11
134.4382176343
 21
135.2736604634
 31
0.0
  0
LINE
  5
190
330
43F
100
AcDbEntity
  8
0
  6
CONTINUOUS
 62
     7
100
AcDbLine
 10
164.4382176343
 20
200.1210801326
 30
0.0
 11
164.4382176343
 21
135.2736604634
 31
0.0
  0
LINE
  5
191
330
43F
100
AcDbEntity
  8
0
  6
CONTINUOUS
 62
     7
100
AcDbLine
 10
134.4382176343
 20
136.2736604634
 30
0.0
 11
164.4382176343
 21
136.2736604634
 31
0.0
  0
TEXT
  5
192
330
43F
100
AcDbEntity
  8
0
  6
CONTINUOUS
 62
     7
100
AcDbText
 10
147.5284954095
 20
3356.4430097187
 30
8.1457613325
 40
2.5
  1
30
 41
0.7
 11
147.5284954095
 21
3358.9430097187
 31
8.1457613325
100
AcDbText
 73
     3
  0
ENDBLK
  5
18C
330
43F
100
AcDbEntity
  8
0
100
AcDbBlockEnd
  0
BLOCK
  5
440
330
441
100
AcDbEntity
  8
0
100
AcDbBlockBegin
  2
_D_15
 70
     0
 10
0.0
 20
0.0
 30
0.0
  3
_D_15
  1

  0
SOLID
  5
197
330
441
100
AcDbEntity
  8
0
  6
CONTINUOUS
 62
     7
100
AcDbTrace
 10
30.2613866303
 20
290.7068665702
 30
0.0
 11
30.6460020149
 21
293.2068665702
 31
0.0
 12
29.8767712457
 22
293.2068665702
 32
0.0
 13
29.8767712457
 23
293.2068665702
 33
0.0
  0
SOLID
  5
198
330
441
100
AcDbEntity
  8
0
  6
CONTINUOUS
 62
     7
100
AcDbTrace
 10
30.2613866303
 20
312.0068665702
 30
0.0
 11
29.8767712457
 21
309.5068665702
 31
0.0
 12
30.6460020149
 22
309.5068665702
 32
0.0
 13
30.6460020149
 23
309.5068665702
 33
0.0
  0
LINE
  5
199
330
441
100
AcDbEntity
  8
0
  6
CONTINUOUS
 62
     7
100
AcDbLine
 10
134.4382176343
 20
290.7068665702
 30
0.0
 11
29.2613866303
 21
290.7068665702
 31
0.0
  0
LINE
  5
19A
330
441
100
AcDbEntity
  8
0
  6
CONTINUOUS
 62
     7
100
AcDbLine
 10
61.5792081401
 20
312.0068665702
 30
0.0
 11
29.2613866303
 21
312.0068665702
 31
0.0
  0
LINE
  5
19B
330
441
100
AcDbEntity
  8
0
  6
CONTINUOUS
 62
     7
100
AcDbLine
 10
30.2613866303
 20
290.7068665702
 30
0.0
 11
30.2613866303
 21
312.0068665702
 31
0.0
  0
TEXT
  5
19C
330
441
100
AcDbEntity
  8
0
  6
CONTINUOUS
 62
     7
100
AcDbText
 10
-3189.907962625
 20
298.014852764
 30
8.1457613325
 40
2.5
  1
21.3
 50
90.0
 41
0.7
 11
-3192.407962625
 21
298.014852764
 31
8.1457613325
100
AcDbText
 73
     3
  0
ENDBLK
  5
196
330
441
100
AcDbEntity
  8
0
100
AcDbBlockEnd
  0
BLOCK
  5
442
330
443
100
AcDbEntity
  8
0
100
AcDbBlockBegin
  2
_D_16
 70
     0
 10
0.0
 20
0.0
 30
0.0
  3
_D_16
  1

  0
SOLID
  5
1A1
330
443
100
AcDbEntity
  8
0
  6
CONTINUOUS
 62
     7
100
AcDbTrace
 10
52.8231375197
 20
290.7068665702
 30
0.0
 11
53.2077529044
 21
293.2068665702
 31
0.0
 12
52.4385221351
 22
293.2068665702
 32
0.0
 13
52.4385221351
 23
293.2068665702
 33
0.0
  0
SOLID
  5
1A2
330
443
100
AcDbEntity
  8
0
  6
CONTINUOUS
 62
     7
100
AcDbTrace
 10
52.8231375197
 20
277.7068665702
 30
0.0
 11
52.4385221351
 21
275.2068665702
 31
0.0
 12
53.2077529044
 22
275.2068665702
 32
0.0
 13
53.2077529044
 23
275.2068665702
 33
0.0
  0
LINE
  5
1A3
330
443
100
AcDbEntity
  8
0
  6
CONTINUOUS
 62
     7
100
AcDbLine
 10
134.4382176343
 20
290.7068665702
 30
0.0
 11
51.8231375197
 21
290.7068665702
 31
0.0
  0
LINE
  5
1A4
330
443
100
AcDbEntity
  8
0
  6
CONTINUOUS
 62
     7
100
AcDbLine
 10
63.4240040719
 20
277.7068665702
 30
0.0
 11
51.8231375197
 21
277.7068665702
 31
0.0
  0
LINE
  5
1A5
330
443
100
AcDbEntity
  8
0
  6
CONTINUOUS
 62
     7
100
AcDbLine
 10
52.8231375197
 20
290.7068665702
 30
0.0
 11
52.8231375197
 21
295.5145588779
 31
0.0
  0
LINE
  5
1A6
330
443
100
AcDbEntity
  8
0
  6
CONTINUOUS
 62
     7
100
AcDbLine
 10
52.8231375197
 20
290.7068665702
 30
0.0
 11
52.8231375197
 21
277.7068665702
 31
0.0
  0
LINE
  5
1A7
330
443
100
AcDbEntity
  8
0
  6
CONTINUOUS
 62
     7
100
AcDbLine
 10
52.8231375197
 20
277.7068665702
 30
0.0
 11
52.8231375197
 21
272.8991742625
 31
0.0
  0
TEXT
  5
1A8
330
443
100
AcDbEntity
  8
0
  6
CONTINUOUS
 62
     7
100
AcDbText
 10
-3167.3462117356
 20
282.2971443453
 30
8.1457613325
 40
2.5
  1
13
 50
90.0
 41
0.7
 11
-3169.8462117356
 21
282.2971443453
 31
8.1457613325
100
AcDbText
 73
     3
  0
ENDBLK
  5
1A0
330
443
100
AcDbEntity
  8
0
100
AcDbBlockEnd
  0
BLOCK
  5
444
330
445
100
AcDbEntity
  8
0
100
AcDbBlockBegin
  2
_D_17
 70
     0
 10
0.0
 20
0.0
 30
0.0
  3
_D_17
  1

  0
SOLID
  5
1AD
330
445
100
AcDbEntity
  8
0
  6
CONTINUOUS
 62
     7
100
AcDbTrace
 10
30.2613866303
 20
290.7068665702
 30
0.0
 11
29.8767712457
 21
288.2068665702
 31
0.0
 12
30.6460020149
 22
288.2068665702
 32
0.0
 13
30.6460020149
 23
288.2068665702
 33
0.0
  0
SOLID
  5
1AE
330
445
100
AcDbEntity
  8
0
  6
CONTINUOUS
 62
     7
100
AcDbTrace
 10
30.2613866303
 20
236.7068665702
 30
0.0
 11
30.6460020149
 21
239.2068665702
 31
0.0
 12
29.8767712457
 22
239.2068665702
 32
0.0
 13
29.8767712457
 23
239.2068665702
 33
0.0
  0
LINE
  5
1AF
330
445
100
AcDbEntity
  8
0
  6
CONTINUOUS
 62
     7
100
AcDbLine
 10
134.4382176343
 20
290.7068665702
 30
0.0
 11
29.2613866303
 21
290.7068665702
 31
0.0
  0
LINE
  5
1B0
330
445
100
AcDbEntity
  8
0
  6
CONTINUOUS
 62
     7
100
AcDbLine
 10
52.7382176343
 20
236.7068665702
 30
0.0
 11
29.2613866303
 21
236.7068665702
 31
0.0
  0
LINE
  5
1B1
330
445
100
AcDbEntity
  8
0
  6
CONTINUOUS
 62
     7
100
AcDbLine
 10
30.2613866303
 20
290.7068665702
 30
0.0
 11
30.2613866303
 21
236.7068665702
 31
0.0
  0
TEXT
  5
1B2
330
445
100
AcDbEntity
  8
0
  6
CONTINUOUS
 62
     7
100
AcDbText
 10
-3189.907962625
 20
261.7971443453
 30
8.1457613325
 40
2.5
  1
54
 50
90.0
 41
0.7
 11
-3192.407962625
 21
261.7971443453
 31
8.1457613325
100
AcDbText
 73
     3
  0
ENDBLK
  5
1AC
330
445
100
AcDbEntity
  8
0
100
AcDbBlockEnd
  0
BLOCK
  5
446
330
447
100
AcDbEntity
  8
0
100
AcDbBlockBegin
  2
_D_18
 70
     0
 10
0.0
 20
0.0
 30
0.0
  3
_D_18
  1

  0
SOLID
  5
1B7
330
447
100
AcDbEntity
  8
0
  6
CONTINUOUS
 62
     7
100
AcDbTrace
 10
44.0103641666
 20
251.7068665702
 30
0.0
 11
43.625748782
 21
249.2068665702
 31
0.0
 12
44.3949795512
 22
249.2068665702
 32
0.0
 13
44.3949795512
 23
249.2068665702
 33
0.0
  0
SOLID
  5
1B8
330
447
100
AcDbEntity
  8
0
  6
CONTINUOUS
 62
     7
100
AcDbTrace
 10
44.0103641666
 20
221.7068665702
 30
0.0
 11
44.3949795512
 21
224.2068665702
 31
0.0
 12
43.625748782
 22
224.2068665702
 32
0.0
 13
43.625748782
 23
224.2068665702
 33
0.0
  0
LINE
  5
1B9
330
447
100
AcDbEntity
  8
0
  6
CONTINUOUS
 62
     7
100
AcDbLine
 10
54.7382176343
 20
251.7068665702
 30
0.0
 11
43.0103641666
 21
251.7068665702
 31
0.0
  0
LINE
  5
1BA
330
447
100
AcDbEntity
  8
0
  6
CONTINUOUS
 62
     7
100
AcDbLine
 10
54.7382176343
 20
221.7068665702
 30
0.0
 11
43.0103641666
 21
221.7068665702
 31
0.0
  0
LINE
  5
1BB
330
447
100
AcDbEntity
  8
0
  6
CONTINUOUS
 62
     7
100
AcDbLine
 10
44.0103641666
 20
251.7068665702
 30
0.0
 11
44.0103641666
 21
221.7068665702
 31
0.0
  0
TEXT
  5
1BC
330
447
100
AcDbEntity
  8
0
  6
CONTINUOUS
 62
     7
100
AcDbText
 10
-3176.1589850887
 20
234.7971443453
 30
8.1457613325
 40
2.5
  1
30
 50
90.0
 41
0.7
 11
-3178.6589850887
 21
234.7971443453
 31
8.1457613325
100
AcDbText
 73
     3
  0
ENDBLK
  5
1B6
330
447
100
AcDbEntity
  8
0
100
AcDbBlockEnd
  0
BLOCK
  5
448
330
449
100
AcDbEntity
  8
0
100
AcDbBlockBegin
  2
_D_19
 70
     0
 10
0.0
 20
0.0
 30
0.0
  3
_D_19
  1

  0
SOLID
  5
1C1
330
449
100
AcDbEntity
  8
0
  6
CONTINUOUS
 62
     7
100
AcDbTrace
 10
54.4382176343
 20
260.8525353283
 30
0.0
 11
56.9382176343
 21
260.4679199437
 31
0.0
 12
56.9382176343
 22
261.2371507129
 32
0.0
 13
56.9382176343
 23
261.2371507129
 33
0.0
  0
SOLID
  5
1C2
330
449
100
AcDbEntity
  8
0
  6
CONTINUOUS
 62
     7
100
AcDbTrace
 10
74.4382176343
 20
260.8525353283
 30
0.0
 11
71.9382176343
 21
261.2371507129
 31
0.0
 12
71.9382176343
 22
260.4679199437
 32
0.0
 13
71.9382176343
 23
260.4679199437
 33
0.0
  0
LINE
  5
1C3
330
449
100
AcDbEntity
  8
0
  6
CONTINUOUS
 62
     7
100
AcDbLine
 10
54.4382176343
 20
251.4068665702
 30
0.0
 11
54.4382176343
 21
261.8525353283
 31
0.0
  0
LINE
  5
1C4
330
449
100
AcDbEntity
  8
0
  6
CONTINUOUS
 62
     7
100
AcDbLine
 10
54.4382176343
 20
260.8525353283
 30
0.0
 11
74.4382176343
 21
260.8525353283
 31
0.0
  0
TEXT
  5
1C5
330
449
100
AcDbEntity
  8
0
  6
CONTINUOUS
 62
     7
100
AcDbText
 10
62.5284954095
 20
3481.0218845836
 30
8.1457613325
 40
2.5
  1
20
 41
0.7
 11
62.5284954095
 21
3483.5218845836
 31
8.1457613325
100
AcDbText
 73
     3
  0
ENDBLK
  5
1C0
330
449
100
AcDbEntity
  8
0
100
AcDbBlockEnd
  0
BLOCK
  5
44A
330
44B
100
AcDbEntity
  8
0
100
AcDbBlockBegin
  2
_D_20
 70
     0
 10
0.0
 20
0.0
 30
0.0
  3
_D_20
  1

  0
SOLID
  5
1CA
330
44B
100
AcDbEntity
  8
0
  6
CONTINUOUS
 62
     7
100
AcDbTrace
 10
58.2984384325
 20
279.7068665702
 30
0.0
 11
58.6830538171
 21
282.2068665702
 31
0.0
 12
57.9138230479
 22
282.2068665702
 32
0.0
 13
57.9138230479
 23
282.2068665702
 33
0.0
  0
SOLID
  5
1CB
330
44B
100
AcDbEntity
  8
0
  6
CONTINUOUS
 62
     7
100
AcDbTrace
 10
58.2984384325
 20
275.7068665702
 30
0.0
 11
57.9138230479
 21
273.2068665702
 31
0.0
 12
58.6830538171
 22
273.2068665702
 32
0.0
 13
58.6830538171
 23
273.2068665702
 33
0.0
  0
LINE
  5
1CC
330
44B
100
AcDbEntity
  8
0
  6
CONTINUOUS
 62
     7
100
AcDbLine
 10
65.4240040719
 20
279.7068665702
 30
0.0
 11
57.2984384325
 21
279.7068665702
 31
0.0
  0
LINE
  5
1CD
330
44B
100
AcDbEntity
  8
0
  6
CONTINUOUS
 62
     7
100
AcDbLine
 10
65.4240040719
 20
275.7068665702
 30
0.0
 11
57.2984384325
 21
275.7068665702
 31
0.0
  0
LINE
  5
1CE
330
44B
100
AcDbEntity
  8
0
  6
CONTINUOUS
 62
     7
100
AcDbLine
 10
58.2984384325
 20
279.7068665702
 30
0.0
 11
58.2984384325
 21
285.0871163852
 31
0.0
  0
LINE
  5
1CF
330
44B
100
AcDbEntity
  8
0
  6
CONTINUOUS
 62
     7
100
AcDbLine
 10
58.2984384325
 20
279.7068665702
 30
0.0
 11
58.2984384325
 21
275.7068665702
 31
0.0
  0
LINE
  5
1D0
330
44B
100
AcDbEntity
  8
0
  6
CONTINUOUS
 62
     7
100
AcDbLine
 10
58.2984384325
 20
275.7068665702
 30
0.0
 11
58.2984384325
 21
270.8991742625
 31
0.0
  0
TEXT
  5
1D1
330
44B
100
AcDbEntity
  8
0
  6
CONTINUOUS
 62
     7
100
AcDbText
 10
-3161.8709108228
 20
283.1773941603
 30
8.1457613325
 40
2.5
  1
4
 50
90.0
 41
0.7
 11
-3164.3709108228
 21
283.1773941603
 31
8.1457613325
100
AcDbText
 73
     3
  0
ENDBLK
  5
1C9
330
44B
100
AcDbEntity
  8
0
100
AcDbBlockEnd
  0
BLOCK
  5
44C
330
44D
100
AcDbEntity
  8
0
100
AcDbBlockBegin
  2
_D_21
 70
     0
 10
0.0
 20
0.0
 30
0.0
  3
_D_21
  1

  0
SOLID
  5
1D6
330
44D
100
AcDbEntity
  8
0
  6
CONTINUOUS
 62
     7
100
AcDbTrace
 10
42.4382176343
 20
296.0068665702
 30
0.0
 11
42.8228330189
 21
298.5068665702
 31
0.0
 12
42.0536022497
 22
298.5068665702
 32
0.0
 13
42.0536022497
 23
298.5068665702
 33
0.0
  0
SOLID
  5
1D7
330
44D
100
AcDbEntity
  8
0
  6
CONTINUOUS
 62
     7
100
AcDbTrace
 10
42.4382176343
 20
328.0068665702
 30
0.0
 11
42.0536022497
 21
325.5068665702
 31
0.0
 12
42.8228330189
 22
325.5068665702
 32
0.0
 13
42.8228330189
 23
325.5068665702
 33
0.0
  0
LINE
  5
1D8
330
44D
100
AcDbEntity
  8
0
  6
CONTINUOUS
 62
     7
100
AcDbLine
 10
63.5792081401
 20
296.0068665702
 30
0.0
 11
41.4382176343
 21
296.0068665702
 31
0.0
  0
LINE
  5
1D9
330
44D
100
AcDbEntity
  8
0
  6
CONTINUOUS
 62
     7
100
AcDbLine
 10
63.5792081401
 20
328.0068665702
 30
0.0
 11
41.4382176343
 21
328.0068665702
 31
0.0
  0
LINE
  5
1DA
330
44D
100
AcDbEntity
  8
0
  6
CONTINUOUS
 62
     7
100
AcDbLine
 10
42.4382176343
 20
296.0068665702
 30
0.0
 11
42.4382176343
 21
328.0068665702
 31
0.0
  0
TEXT
  5
1DB
330
44D
100
AcDbEntity
  8
0
  6
CONTINUOUS
 62
     7
100
AcDbText
 10
-3177.731131621
 20
310.0971443453
 30
8.1457613325
 40
2.5
  1
32
 50
90.0
 41
0.7
 11
-3180.231131621
 21
310.0971443453
 31
8.1457613325
100
AcDbText
 73
     3
  0
ENDBLK
  5
1D5
330
44D
100
AcDbEntity
  8
0
100
AcDbBlockEnd
  0
BLOCK
  5
44E
330
44F
100
AcDbEntity
  8
0
100
AcDbBlockBegin
  2
SW_NOTE_0
 70
     0
 10
0.0
 20
0.0
 30
0.0
  3
SW_NOTE_0
  1

  0
LINE
  5
1DF
330
44F
100
AcDbEntity
  8
0
  6
CONTINUOUS
 62
     0
100
AcDbLine
 10
44.3914512867
 20
22.7596444009
 30
0.0
 11
34.3853975999
 21
22.7596444009
 31
0.0
  0
TEXT
  5
1E0
330
44F
100
AcDbEntity
  8
0
  6
CONTINUOUS
 62
     0
100
AcDbText
 10
34.7702614806
 20
3246.5040568928
 30
0.0
 40
2.5
  1
only at
 41
0.7
 11
34.7702614806
 21
3249.0040568928
 31
0.0
100
AcDbText
 73
     3
  0
TEXT
  5
1E1
330
44F
100
AcDbEntity
  8
0
  6
CONTINUOUS
 62
     0
100
AcDbText
 10
34.7702614806
 20
3243.0040570176
 30
0.0
 40
2.5
  1
40101
 41
0.7
 11
34.7702614806
 21
3245.5040570176
 31
0.0
100
AcDbText
 73
     3
  0
LINE
  5
1E2
330
44F
100
AcDbEntity
  8
0
  6
CONTINUOUS
 62
     0
100
AcDbLine
 10
34.3853975999
 20
22.7596444009
 30
0.0
 11
0.0
 21
0.0
 31
0.0
  0
SOLID
  5
1E3
330
44F
100
AcDbEntity
  8
0
  6
CONTINUOUS
 62
     0
100
AcDbTrace
 10
0.0
 20
0.0
 30
0.0
 11
2.2969884539
 21
1.0591378742
 31
0.0
 12
1.872415754
 22
1.7005846754
 32
0.0
 13
1.872415754
 23
1.7005846754
 33
0.0
  0
ENDBLK
  5
1DE
330
44F
100
AcDbEntity
  8
0
100
AcDbBlockEnd
  0
BLOCK
  5
450
330
451
100
AcDbEntity
  8
0
100
AcDbBlockBegin
  2
SW_CENTERMARKSYMBOL_0
 70
     0
 10
0.0
 20
0.0
 30
0.0
  3
SW_CENTERMARKSYMBOL_0
  1

  0
LINE
  5
1E8
330
451
100
AcDbEntity
  8
0
  6
CONTINUOUS
 62
     0
100
AcDbLine
 10
0.0
 20
0.0
 30
0.0
 11
0.0
 21
2.5
 31
0.0
  0
LINE
  5
1E9
330
451
100
AcDbEntity
  8
0
  6
CONTINUOUS
 62
     0
100
AcDbLine
 10
0.0
 20
0.0
 30
0.0
 11
-2.5
 21
0.0
 31
0.0
  0
LINE
  5
1EA
330
451
100
AcDbEntity
  8
0
  6
CONTINUOUS
 62
     0
100
AcDbLine
 10
0.0
 20
0.0
 30
0.0
 11
0.0
 21
-2.5
 31
0.0
  0
LINE
  5
1EB
330
451
100
AcDbEntity
  8
0
  6
CONTINUOUS
 62
     0
100
AcDbLine
 10
0.0
 20
0.0
 30
0.0
 11
2.5
 21
0.0
 31
0.0
  0
LINE
  5
1EC
330
451
100
AcDbEntity
  8
0
  6
CONTINUOUS
 62
     0
100
AcDbLine
 10
0.0
 20
5.0
 30
0.0
 11
0.0
 21
11.15
 31
0.0
  0
LINE
  5
1ED
330
451
100
AcDbEntity
  8
0
  6
CONTINUOUS
 62
     0
100
AcDbLine
 10
-5.0
 20
0.0
 30
0.0
 11
-11.15
 21
0.0
 31
0.0
  0
LINE
  5
1EE
330
451
100
AcDbEntity
  8
0
  6
CONTINUOUS
 62
     0
100
AcDbLine
 10
0.0
 20
-5.0
 30
0.0
 11
0.0
 21
-11.15
 31
0.0
  0
LINE
  5
1EF
330
451
100
AcDbEntity
  8
0
  6
CONTINUOUS
 62
     0
100
AcDbLine
 10
5.0
 20
0.0
 30
0.0
 11
11.15
 21
0.0
 31
0.0
  0
ENDBLK
  5
1E7
330
451
100
AcDbEntity
  8
0
100
AcDbBlockEnd
  0
BLOCK
  5
452
330
453
100
AcDbEntity
  8
0
100
AcDbBlockBegin
  2
SW_CENTERMARKSYMBOL_1
 70
     0
 10
0.0
 20
0.0
 30
0.0
  3
SW_CENTERMARKSYMBOL_1
  1

  0
LINE
  5
1F4
330
453
100
AcDbEntity
  8
0
  6
CONTINUOUS
 62
     0
100
AcDbLine
 10
0.0
 20
0.0
 30
0.0
 11
0.0
 21
2.5
 31
0.0
  0
LINE
  5
1F5
330
453
100
AcDbEntity
  8
0
  6
CONTINUOUS
 62
     0
100
AcDbLine
 10
0.0
 20
0.0
 30
0.0
 11
-2.5
 21
0.0
 31
0.0
  0
LINE
  5
1F6
330
453
100
AcDbEntity
  8
0
  6
CONTINUOUS
 62
     0
100
AcDbLine
 10
0.0
 20
0.0
 30
0.0
 11
0.0
 21
-2.5
 31
0.0
  0
LINE
  5
1F7
330
453
100
AcDbEntity
  8
0
  6
CONTINUOUS
 62
     0
100
AcDbLine
 10
0.0
 20
0.0
 30
0.0
 11
2.5
 21
0.0
 31
0.0
  0
LINE
  5
1F8
330
453
100
AcDbEntity
  8
0
  6
CONTINUOUS
 62
     0
100
AcDbLine
 10
0.0
 20
5.0
 30
0.0
 11
0.0
 21
5.75
 31
0.0
  0
LINE
  5
1F9
330
453
100
AcDbEntity
  8
0
  6
CONTINUOUS
 62
     0
100
AcDbLine
 10
-5.0
 20
0.0
 30
0.0
 11
-5.75
 21
0.0
 31
0.0
  0
LINE
  5
1FA
330
453
100
AcDbEntity
  8
0
  6
CONTINUOUS
 62
     0
100
AcDbLine
 10
0.0
 20
-5.0
 30
0.0
 11
0.0
 21
-5.75
 31
0.0
  0
LINE
  5
1FB
330
453
100
AcDbEntity
  8
0
  6
CONTINUOUS
 62
     0
100
AcDbLine
 10
5.0
 20
0.0
 30
0.0
 11
5.75
 21
0.0
 31
0.0
  0
ENDBLK
  5
1F3
330
453
100
AcDbEntity
  8
0
100
AcDbBlockEnd
  0
BLOCK
  5
454
330
455
100
AcDbEntity
  8
0
100
AcDbBlockBegin
  2
SW_CENTERMARKSYMBOL_2
 70
     0
 10
0.0
 20
0.0
 30
0.0
  3
SW_CENTERMARKSYMBOL_2
  1

  0
LINE
  5
200
330
455
100
AcDbEntity
  8
0
  6
CONTINUOUS
 62
     0
100
AcDbLine
 10
0.0
 20
0.0
 30
0.0
 11
0.0
 21
2.5
 31
0.0
  0
LINE
  5
201
330
455
100
AcDbEntity
  8
0
  6
CONTINUOUS
 62
     0
100
AcDbLine
 10
0.0
 20
0.0
 30
0.0
 11
-2.5
 21
0.0
 31
0.0
  0
LINE
  5
202
330
455
100
AcDbEntity
  8
0
  6
CONTINUOUS
 62
     0
100
AcDbLine
 10
0.0
 20
0.0
 30
0.0
 11
0.0
 21
-2.5
 31
0.0
  0
LINE
  5
203
330
455
100
AcDbEntity
  8
0
  6
CONTINUOUS
 62
     0
100
AcDbLine
 10
0.0
 20
0.0
 30
0.0
 11
2.5
 21
0.0
 31
0.0
  0
LINE
  5
204
330
455
100
AcDbEntity
  8
0
  6
CONTINUOUS
 62
     0
100
AcDbLine
 10
0.0
 20
5.0
 30
0.0
 11
0.0
 21
5.75
 31
0.0
  0
LINE
  5
205
330
455
100
AcDbEntity
  8
0
  6
CONTINUOUS
 62
     0
100
AcDbLine
 10
-5.0
 20
0.0
 30
0.0
 11
-5.75
 21
0.0
 31
0.0
  0
LINE
  5
206
330
455
100
AcDbEntity
  8
0
  6
CONTINUOUS
 62
     0
100
AcDbLine
 10
0.0
 20
-5.0
 30
0.0
 11
0.0
 21
-5.75
 31
0.0
  0
LINE
  5
207
330
455
100
AcDbEntity
  8
0
  6
CONTINUOUS
 62
     0
100
AcDbLine
 10
5.0
 20
0.0
 30
0.0
 11
5.75
 21
0.0
 31
0.0
  0
ENDBLK
  5
1FF
330
455
100
AcDbEntity
  8
0
100
AcDbBlockEnd
  0
BLOCK
  5
456
330
457
100
AcDbEntity
  8
0
100
AcDbBlockBegin
  2
SW_CENTERMARKSYMBOL_3
 70
     0
 10
0.0
 20
0.0
 30
0.0
  3
SW_CENTERMARKSYMBOL_3
  1

  0
LINE
  5
20C
330
457
100
AcDbEntity
  8
0
  6
CONTINUOUS
 62
     0
100
AcDbLine
 10
0.0
 20
0.0
 30
0.0
 11
0.0
 21
2.5
 31
0.0
  0
LINE
  5
20D
330
457
100
AcDbEntity
  8
0
  6
CONTINUOUS
 62
     0
100
AcDbLine
 10
0.0
 20
0.0
 30
0.0
 11
-2.5
 21
0.0
 31
0.0
  0
LINE
  5
20E
330
457
100
AcDbEntity
  8
0
  6
CONTINUOUS
 62
     0
100
AcDbLine
 10
0.0
 20
0.0
 30
0.0
 11
0.0
 21
-2.5
 31
0.0
  0
LINE
  5
20F
330
457
100
AcDbEntity
  8
0
  6
CONTINUOUS
 62
     0
100
AcDbLine
 10
0.0
 20
0.0
 30
0.0
 11
2.5
 21
0.0
 31
0.0
  0
LINE
  5
210
330
457
100
AcDbEntity
  8
0
  6
CONTINUOUS
 62
     0
100
AcDbLine
 10
0.0
 20
5.0
 30
0.0
 11
0.0
 21
6.25
 31
0.0
  0
LINE
  5
211
330
457
100
AcDbEntity
  8
0
  6
CONTINUOUS
 62
     0
100
AcDbLine
 10
-5.0
 20
0.0
 30
0.0
 11
-6.25
 21
0.0
 31
0.0
  0
LINE
  5
212
330
457
100
AcDbEntity
  8
0
  6
CONTINUOUS
 62
     0
100
AcDbLine
 10
0.0
 20
-5.0
 30
0.0
 11
0.0
 21
-6.25
 31
0.0
  0
LINE
  5
213
330
457
100
AcDbEntity
  8
0
  6
CONTINUOUS
 62
     0
100
AcDbLine
 10
5.0
 20
0.0
 30
0.0
 11
6.25
 21
0.0
 31
0.0
  0
ENDBLK
  5
20B
330
457
100
AcDbEntity
  8
0
100
AcDbBlockEnd
  0
BLOCK
  5
458
330
459
100
AcDbEntity
  8
0
100
AcDbBlockBegin
  2
SW_CENTERMARKSYMBOL_4
 70
     0
 10
0.0
 20
0.0
 30
0.0
  3
SW_CENTERMARKSYMBOL_4
  1

  0
LINE
  5
218
330
459
100
AcDbEntity
  8
0
  6
CONTINUOUS
 62
     0
100
AcDbLine
 10
0.0
 20
0.0
 30
0.0
 11
0.0
 21
2.5
 31
0.0
  0
LINE
  5
219
330
459
100
AcDbEntity
  8
0
  6
CONTINUOUS
 62
     0
100
AcDbLine
 10
0.0
 20
0.0
 30
0.0
 11
-2.5
 21
0.0
 31
0.0
  0
LINE
  5
21A
330
459
100
AcDbEntity
  8
0
  6
CONTINUOUS
 62
     0
100
AcDbLine
 10
0.0
 20
0.0
 30
0.0
 11
0.0
 21
-2.5
 31
0.0
  0
LINE
  5
21B
330
459
100
AcDbEntity
  8
0
  6
CONTINUOUS
 62
     0
100
AcDbLine
 10
0.0
 20
0.0
 30
0.0
 11
2.5
 21
0.0
 31
0.0
  0
LINE
  5
21C
330
459
100
AcDbEntity
  8
0
  6
CONTINUOUS
 62
     0
100
AcDbLine
 10
0.0
 20
5.0
 30
0.0
 11
0.0
 21
5.75
 31
0.0
  0
LINE
  5
21D
330
459
100
AcDbEntity
  8
0
  6
CONTINUOUS
 62
     0
100
AcDbLine
 10
-5.0
 20
0.0
 30
0.0
 11
-5.75
 21
0.0
 31
0.0
  0
LINE
  5
21E
330
459
100
AcDbEntity
  8
0
  6
CONTINUOUS
 62
     0
100
AcDbLine
 10
0.0
 20
-5.0
 30
0.0
 11
0.0
 21
-5.75
 31
0.0
  0
LINE
  5
21F
330
459
100
AcDbEntity
  8
0
  6
CONTINUOUS
 62
     0
100
AcDbLine
 10
5.0
 20
0.0
 30
0.0
 11
5.75
 21
0.0
 31
0.0
  0
ENDBLK
  5
217
330
459
100
AcDbEntity
  8
0
100
AcDbBlockEnd
  0
BLOCK
  5
45A
330
45B
100
AcDbEntity
  8
0
100
AcDbBlockBegin
  2
SW_CENTERMARKSYMBOL_5
 70
     0
 10
0.0
 20
0.0
 30
0.0
  3
SW_CENTERMARKSYMBOL_5
  1

  0
LINE
  5
224
330
45B
100
AcDbEntity
  8
0
  6
CONTINUOUS
 62
     0
100
AcDbLine
 10
0.0
 20
0.0
 30
0.0
 11
0.0
 21
2.5
 31
0.0
  0
LINE
  5
225
330
45B
100
AcDbEntity
  8
0
  6
CONTINUOUS
 62
     0
100
AcDbLine
 10
0.0
 20
0.0
 30
0.0
 11
-2.5
 21
0.0
 31
0.0
  0
LINE
  5
226
330
45B
100
AcDbEntity
  8
0
  6
CONTINUOUS
 62
     0
100
AcDbLine
 10
0.0
 20
0.0
 30
0.0
 11
0.0
 21
-2.5
 31
0.0
  0
LINE
  5
227
330
45B
100
AcDbEntity
  8
0
  6
CONTINUOUS
 62
     0
100
AcDbLine
 10
0.0
 20
0.0
 30
0.0
 11
2.5
 21
0.0
 31
0.0
  0
LINE
  5
228
330
45B
100
AcDbEntity
  8
0
  6
CONTINUOUS
 62
     0
100
AcDbLine
 10
0.0
 20
5.0
 30
0.0
 11
0.0
 21
5.75
 31
0.0
  0
LINE
  5
229
330
45B
100
AcDbEntity
  8
0
  6
CONTINUOUS
 62
     0
100
AcDbLine
 10
-5.0
 20
0.0
 30
0.0
 11
-5.75
 21
0.0
 31
0.0
  0
LINE
  5
22A
330
45B
100
AcDbEntity
  8
0
  6
CONTINUOUS
 62
     0
100
AcDbLine
 10
0.0
 20
-5.0
 30
0.0
 11
0.0
 21
-5.75
 31
0.0
  0
LINE
  5
22B
330
45B
100
AcDbEntity
  8
0
  6
CONTINUOUS
 62
     0
100
AcDbLine
 10
5.0
 20
0.0
 30
0.0
 11
5.75
 21
0.0
 31
0.0
  0
ENDBLK
  5
223
330
45B
100
AcDbEntity
  8
0
100
AcDbBlockEnd
  0
BLOCK
  5
45C
330
45D
100
AcDbEntity
  8
0
100
AcDbBlockBegin
  2
SW_CENTERMARKSYMBOL_6
 70
     0
 10
0.0
 20
0.0
 30
0.0
  3
SW_CENTERMARKSYMBOL_6
  1

  0
LINE
  5
230
330
45D
100
AcDbEntity
  8
0
  6
CONTINUOUS
 62
     0
100
AcDbLine
 10
0.0
 20
0.0
 30
0.0
 11
0.0
 21
2.5
 31
0.0
  0
LINE
  5
231
330
45D
100
AcDbEntity
  8
0
  6
CONTINUOUS
 62
     0
100
AcDbLine
 10
0.0
 20
0.0
 30
0.0
 11
-2.5
 21
0.0
 31
0.0
  0
LINE
  5
232
330
45D
100
AcDbEntity
  8
0
  6
CONTINUOUS
 62
     0
100
AcDbLine
 10
0.0
 20
0.0
 30
0.0
 11
0.0
 21
-2.5
 31
0.0
  0
LINE
  5
233
330
45D
100
AcDbEntity
  8
0
  6
CONTINUOUS
 62
     0
100
AcDbLine
 10
0.0
 20
0.0
 30
0.0
 11
2.5
 21
0.0
 31
0.0
  0
LINE
  5
234
330
45D
100
AcDbEntity
  8
0
  6
CONTINUOUS
 62
     0
100
AcDbLine
 10
0.0
 20
5.0
 30
0.0
 11
0.0
 21
13.6
 31
0.0
  0
LINE
  5
235
330
45D
100
AcDbEntity
  8
0
  6
CONTINUOUS
 62
     0
100
AcDbLine
 10
-5.0
 20
0.0
 30
0.0
 11
-13.6
 21
0.0
 31
0.0
  0
LINE
  5
236
330
45D
100
AcDbEntity
  8
0
  6
CONTINUOUS
 62
     0
100
AcDbLine
 10
0.0
 20
-5.0
 30
0.0
 11
0.0
 21
-13.6
 31
0.0
  0
LINE
  5
237
330
45D
100
AcDbEntity
  8
0
  6
CONTINUOUS
 62
     0
100
AcDbLine
 10
5.0
 20
0.0
 30
0.0
 11
13.6
 21
0.0
 31
0.0
  0
ENDBLK
  5
22F
330
45D
100
AcDbEntity
  8
0
100
AcDbBlockEnd
  0
BLOCK
  5
45E
330
45F
100
AcDbEntity
  8
0
100
AcDbBlockBegin
  2
_D_22
 70
     0
 10
0.0
 20
0.0
 30
0.0
  3
_D_22
  1

  0
SOLID
  5
347
330
45F
100
AcDbEntity
  8
0
  6
CONTINUOUS
 62
     7
100
AcDbTrace
 10
270.8886072827
 20
156.7068665702
 30
0.0
 11
271.2732226674
 21
159.2068665702
 31
0.0
 12
270.5039918981
 22
159.2068665702
 32
0.0
 13
270.5039918981
 23
159.2068665702
 33
0.0
  0
SOLID
  5
348
330
45F
100
AcDbEntity
  8
0
  6
CONTINUOUS
 62
     7
100
AcDbTrace
 10
270.8886072827
 20
147.7068665702
 30
0.0
 11
270.5039918981
 21
145.2068665702
 31
0.0
 12
271.2732226674
 22
145.2068665702
 32
0.0
 13
271.2732226674
 23
145.2068665702
 33
0.0
  0
LINE
  5
349
330
45F
100
AcDbEntity
  8
0
  6
CONTINUOUS
 62
     7
100
AcDbLine
 10
233.8980970029
 20
156.7068665702
 30
0.0
 11
271.8886072827
 21
156.7068665702
 31
0.0
  0
LINE
  5
34A
330
45F
100
AcDbEntity
  8
0
  6
CONTINUOUS
 62
     7
100
AcDbLine
 10
239.5992391359
 20
147.7068665702
 30
0.0
 11
271.8886072827
 21
147.7068665702
 31
0.0
  0
LINE
  5
34B
330
45F
100
AcDbEntity
  8
0
  6
CONTINUOUS
 62
     7
100
AcDbLine
 10
270.8886072827
 20
156.7068665702
 30
0.0
 11
270.8886072827
 21
161.5145588779
 31
0.0
  0
LINE
  5
34C
330
45F
100
AcDbEntity
  8
0
  6
CONTINUOUS
 62
     7
100
AcDbLine
 10
270.8886072827
 20
156.7068665702
 30
0.0
 11
270.8886072827
 21
147.7068665702
 31
0.0
  0
LINE
  5
34D
330
45F
100
AcDbEntity
  8
0
  6
CONTINUOUS
 62
     7
100
AcDbLine
 10
270.8886072827
 20
147.7068665702
 30
0.0
 11
270.8886072827
 21
142.8991742625
 31
0.0
  0
TEXT
  5
34E
330
45F
100
AcDbEntity
  8
0
  6
CONTINUOUS
 62
     7
100
AcDbText
 10
-2949.2807419725
 20
151.2520054577
 30
0.0
 40
2.5
  1
9
 50
90.0
 41
0.7
 11
-2951.7807419725
 21
151.2520054577
 31
0.0
100
AcDbText
 73
     3
  0
ENDBLK
  5
346
330
45F
100
AcDbEntity
  8
0
100
AcDbBlockEnd
  0
BLOCK
  5
460
330
461
100
AcDbEntity
  8
0
100
AcDbBlockBegin
  2
_D_23
 70
     0
 10
0.0
 20
0.0
 30
0.0
  3
_D_23
  1

  0
SOLID
  5
353
330
461
100
AcDbEntity
  8
0
  6
CONTINUOUS
 62
     7
100
AcDbTrace
 10
229.8980970029
 20
239.8153809231
 30
0.0
 11
232.3980970029
 21
239.4307655384
 31
0.0
 12
232.3980970029
 22
240.1999963077
 32
0.0
 13
232.3980970029
 23
240.1999963077
 33
0.0
  0
SOLID
  5
354
330
461
100
AcDbEntity
  8
0
  6
CONTINUOUS
 62
     7
100
AcDbTrace
 10
237.8980970029
 20
239.8153809231
 30
0.0
 11
235.3980970029
 21
240.1999963077
 31
0.0
 12
235.3980970029
 22
239.4307655384
 32
0.0
 13
235.3980970029
 23
239.4307655384
 33
0.0
  0
LINE
  5
355
330
461
100
AcDbEntity
  8
0
  6
CONTINUOUS
 62
     7
100
AcDbLine
 10
229.8980970029
 20
239.8153809231
 30
0.0
 11
237.8980970029
 21
239.8153809231
 31
0.0
  0
LINE
  5
356
330
461
100
AcDbEntity
  8
0
  6
CONTINUOUS
 62
     7
100
AcDbLine
 10
237.8980970029
 20
239.8153809231
 30
0.0
 11
248.4118654103
 21
239.8153809231
 31
0.0
  0
TEXT
  5
357
330
461
100
AcDbEntity
  8
0
  6
CONTINUOUS
 62
     7
100
AcDbText
 10
246.5021431855
 20
3459.9847301783
 30
-53.1655918467
 40
2.5
  1
8
 41
0.7
 11
246.5021431855
 21
3462.4847301783
 31
-53.1655918467
100
AcDbText
 73
     3
  0
ENDBLK
  5
352
330
461
100
AcDbEntity
  8
0
100
AcDbBlockEnd
  0
BLOCK
  5
462
330
463
100
AcDbEntity
  8
0
100
AcDbBlockBegin
  2
_D_24
 70
     0
 10
0.0
 20
0.0
 30
0.0
  3
_D_24
  1

  0
SOLID
  5
35C
330
463
100
AcDbEntity
  8
0
  6
CONTINUOUS
 62
     7
100
AcDbTrace
 10
228.8980970029
 20
285.1960429594
 30
0.0
 11
231.3980970029
 21
284.8114275748
 31
0.0
 12
231.3980970029
 22
285.580658344
 32
0.0
 13
231.3980970029
 23
285.580658344
 33
0.0
  0
SOLID
  5
35D
330
463
100
AcDbEntity
  8
0
  6
CONTINUOUS
 62
     7
100
AcDbTrace
 10
238.8980970029
 20
285.1960429594
 30
0.0
 11
236.3980970029
 21
285.580658344
 31
0.0
 12
236.3980970029
 22
284.8114275748
 32
0.0
 13
236.3980970029
 23
284.8114275748
 33
0.0
  0
LINE
  5
35E
330
463
100
AcDbEntity
  8
0
  6
CONTINUOUS
 62
     7
100
AcDbLine
 10
228.8980970029
 20
279.7068665702
 30
0.0
 11
228.8980970029
 21
286.1960429594
 31
0.0
  0
LINE
  5
35F
330
463
100
AcDbEntity
  8
0
  6
CONTINUOUS
 62
     7
100
AcDbLine
 10
238.8980970029
 20
279.7068665702
 30
0.0
 11
238.8980970029
 21
286.1960429594
 31
0.0
  0
LINE
  5
360
330
463
100
AcDbEntity
  8
0
  6
CONTINUOUS
 62
     7
100
AcDbLine
 10
228.8980970029
 20
285.1960429594
 30
0.0
 11
238.8980970029
 21
285.1960429594
 31
0.0
  0
LINE
  5
361
330
463
100
AcDbEntity
  8
0
  6
CONTINUOUS
 62
     7
100
AcDbLine
 10
238.8980970029
 20
285.1960429594
 30
0.0
 11
250.1049030771
 21
285.1960429594
 31
0.0
  0
TEXT
  5
362
330
463
100
AcDbEntity
  8
0
  6
CONTINUOUS
 62
     7
100
AcDbText
 10
246.2854586275
 20
3505.3653922147
 30
-53.1655918467
 40
2.5
  1
10
 41
0.7
 11
246.2854586275
 21
3507.8653922147
 31
-53.1655918467
100
AcDbText
 73
     3
  0
ENDBLK
  5
35B
330
463
100
AcDbEntity
  8
0
100
AcDbBlockEnd
  0
BLOCK
  5
464
330
465
100
AcDbEntity
  8
0
100
AcDbBlockBegin
  2
_D_25
 70
     0
 10
0.0
 20
0.0
 30
0.0
  3
_D_25
  1

  0
SOLID
  5
367
330
465
100
AcDbEntity
  8
0
  6
CONTINUOUS
 62
     7
100
AcDbTrace
 10
239.8980970029
 20
332.2625221817
 30
0.0
 11
237.3980970029
 21
332.6471375663
 31
0.0
 12
237.3980970029
 22
331.877906797
 32
0.0
 13
237.3980970029
 23
331.877906797
 33
0.0
  0
SOLID
  5
368
330
465
100
AcDbEntity
  8
0
  6
CONTINUOUS
 62
     7
100
AcDbTrace
 10
227.8980970029
 20
332.2625221817
 30
0.0
 11
230.3980970029
 21
331.877906797
 31
0.0
 12
230.3980970029
 22
332.6471375663
 32
0.0
 13
230.3980970029
 23
332.6471375663
 33
0.0
  0
LINE
  5
369
330
465
100
AcDbEntity
  8
0
  6
CONTINUOUS
 62
     7
100
AcDbLine
 10
239.8980970029
 20
324.0251371383
 30
0.0
 11
239.8980970029
 21
333.2625221817
 31
0.0
  0
LINE
  5
36A
330
465
100
AcDbEntity
  8
0
  6
CONTINUOUS
 62
     7
100
AcDbLine
 10
227.8980970029
 20
328.0068665702
 30
0.0
 11
227.8980970029
 21
333.2625221817
 31
0.0
  0
LINE
  5
36B
330
465
100
AcDbEntity
  8
0
  6
CONTINUOUS
 62
     7
100
AcDbLine
 10
239.8980970029
 20
332.2625221817
 30
0.0
 11
249.1395919017
 21
332.2625221817
 31
0.0
  0
LINE
  5
36C
330
465
100
AcDbEntity
  8
0
  6
CONTINUOUS
 62
     7
100
AcDbLine
 10
239.8980970029
 20
332.2625221817
 30
0.0
 11
227.8980970029
 21
332.2625221817
 31
0.0
  0
TEXT
  5
36D
330
465
100
AcDbEntity
  8
0
  6
CONTINUOUS
 62
     7
100
AcDbText
 10
245.3201474521
 20
3552.431871437
 30
-53.1655918467
 40
2.5
  1
12
 41
0.7
 11
245.3201474521
 21
3554.931871437
 31
-53.1655918467
100
AcDbText
 73
     3
  0
ENDBLK
  5
366
330
465
100
AcDbEntity
  8
0
100
AcDbBlockEnd
  0
BLOCK
  5
466
330
467
100
AcDbEntity
  8
0
100
AcDbBlockBegin
  2
_D_26
 70
     0
 10
0.0
 20
0.0
 30
0.0
  3
_D_26
  1

  0
SOLID
  5
372
330
467
100
AcDbEntity
  8
0
  6
CONTINUOUS
 62
     7
100
AcDbTrace
 10
224.8980970029
 20
225.7068665702
 30
0.0
 11
222.3980970029
 21
226.0914819548
 31
0.0
 12
222.3980970029
 22
225.3222511856
 32
0.0
 13
222.3980970029
 23
225.3222511856
 33
0.0
  0
SOLID
  5
373
330
467
100
AcDbEntity
  8
0
  6
CONTINUOUS
 62
     7
100
AcDbTrace
 10
242.8980970029
 20
225.7068665702
 30
0.0
 11
245.3980970029
 21
225.3222511856
 31
0.0
 12
245.3980970029
 22
226.0914819548
 32
0.0
 13
245.3980970029
 23
226.0914819548
 33
0.0
  0
LINE
  5
374
330
467
100
AcDbEntity
  8
0
  6
CONTINUOUS
 62
     7
100
AcDbLine
 10
224.8980970029
 20
225.7068665702
 30
0.0
 11
220.0904046952
 21
225.7068665702
 31
0.0
  0
LINE
  5
375
330
467
100
AcDbEntity
  8
0
  6
CONTINUOUS
 62
     7
100
AcDbLine
 10
224.8980970029
 20
225.7068665702
 30
0.0
 11
242.8980970029
 21
225.7068665702
 31
0.0
  0
LINE
  5
376
330
467
100
AcDbEntity
  8
0
  6
CONTINUOUS
 62
     7
100
AcDbLine
 10
242.8980970029
 20
225.7068665702
 30
0.0
 11
247.7057893106
 21
225.7068665702
 31
0.0
  0
TEXT
  5
377
330
467
100
AcDbEntity
  8
0
  6
CONTINUOUS
 62
     7
100
AcDbText
 10
228.6463606227
 20
3445.8762158255
 30
-53.1655918467
 40
2.5
  1
18 / 
 41
0.56
 11
228.6463606227
 21
3448.3762158255
 31
-53.1655918467
100
AcDbText
 73
     3
  0
TEXT
  5
378
330
467
100
AcDbEntity
  8
0
  6
CONTINUOUS
 62
     7
100
AcDbText
 10
235.3303882349
 20
3445.8762158255
 30
-53.1655918467
 40
2.5
  1
18
 41
0.7
 11
235.3303882349
 21
3448.3762158255
 31
-53.1655918467
100
AcDbText
 73
     3
  0
ENDBLK
  5
371
330
467
100
AcDbEntity
  8
0
100
AcDbBlockEnd
  0
BLOCK
  5
468
330
469
100
AcDbEntity
  8
0
100
AcDbBlockBegin
  2
_D_27
 70
     0
 10
0.0
 20
0.0
 30
0.0
  3
_D_27
  1

  0
SOLID
  5
37D
330
469
100
AcDbEntity
  8
0
  6
CONTINUOUS
 62
     7
100
AcDbTrace
 10
270.8123903989
 20
156.7068665702
 30
0.0
 11
271.1970057836
 21
159.2068665702
 31
0.0
 12
270.4277750143
 22
159.2068665702
 32
0.0
 13
270.4277750143
 23
159.2068665702
 33
0.0
  0
SOLID
  5
37E
330
469
100
AcDbEntity
  8
0
  6
CONTINUOUS
 62
     7
100
AcDbTrace
 10
270.8123903989
 20
368.7068665702
 30
0.0
 11
270.4277750143
 21
366.2068665702
 31
0.0
 12
271.1970057836
 22
366.2068665702
 32
0.0
 13
271.1970057836
 23
366.2068665702
 33
0.0
  0
LINE
  5
37F
330
469
100
AcDbEntity
  8
0
  6
CONTINUOUS
 62
     7
100
AcDbLine
 10
239.1480970029
 20
156.7068665702
 30
0.0
 11
271.8123903989
 21
156.7068665702
 31
0.0
  0
LINE
  5
380
330
469
100
AcDbEntity
  8
0
  6
CONTINUOUS
 62
     7
100
AcDbLine
 10
239.1480970029
 20
368.7068665702
 30
0.0
 11
271.8123903989
 21
368.7068665702
 31
0.0
  0
LINE
  5
381
330
469
100
AcDbEntity
  8
0
  6
CONTINUOUS
 62
     7
100
AcDbLine
 10
270.8123903989
 20
156.7068665702
 30
0.0
 11
270.8123903989
 21
368.7068665702
 31
0.0
  0
TEXT
  5
382
330
469
100
AcDbEntity
  8
0
  6
CONTINUOUS
 62
     7
100
AcDbText
 10
-2949.3569588563
 20
259.8422831748
 30
-53.1655918467
 40
2.5
  1
212
 50
90.0
 41
0.7
 11
-2951.8569588563
 21
259.8422831748
 31
-53.1655918467
100
AcDbText
 73
     3
  0
ENDBLK
  5
37C
330
469
100
AcDbEntity
  8
0
100
AcDbBlockEnd
  0
BLOCK
  5
46A
330
46B
100
AcDbEntity
  8
0
100
AcDbBlockBegin
  2
SW_CENTERMARKSYMBOL_7
 70
     0
 10
0.0
 20
0.0
 30
0.0
  3
SW_CENTERMARKSYMBOL_7
  1

  0
LINE
  5
386
330
46B
100
AcDbEntity
  8
0
  6
CONTINUOUS
 62
     0
100
AcDbLine
 10
0.0
 20
0.0
 30
0.0
 11
0.0
 21
2.5
 31
0.0
  0
LINE
  5
387
330
46B
100
AcDbEntity
  8
0
  6
CONTINUOUS
 62
     0
100
AcDbLine
 10
0.0
 20
0.0
 30
0.0
 11
-2.5
 21
0.0
 31
0.0
  0
LINE
  5
388
330
46B
100
AcDbEntity
  8
0
  6
CONTINUOUS
 62
     0
100
AcDbLine
 10
0.0
 20
0.0
 30
0.0
 11
0.0
 21
-2.5
 31
0.0
  0
LINE
  5
389
330
46B
100
AcDbEntity
  8
0
  6
CONTINUOUS
 62
     0
100
AcDbLine
 10
0.0
 20
0.0
 30
0.0
 11
2.5
 21
0.0
 31
0.0
  0
LINE
  5
38A
330
46B
100
AcDbEntity
  8
0
  6
CONTINUOUS
 62
     0
100
AcDbLine
 10
0.0
 20
5.0
 30
0.0
 11
0.0
 21
5.25
 31
0.0
  0
LINE
  5
38B
330
46B
100
AcDbEntity
  8
0
  6
CONTINUOUS
 62
     0
100
AcDbLine
 10
-5.0
 20
0.0
 30
0.0
 11
-5.25
 21
0.0
 31
0.0
  0
LINE
  5
38C
330
46B
100
AcDbEntity
  8
0
  6
CONTINUOUS
 62
     0
100
AcDbLine
 10
0.0
 20
-5.0
 30
0.0
 11
0.0
 21
-5.25
 31
0.0
  0
LINE
  5
38D
330
46B
100
AcDbEntity
  8
0
  6
CONTINUOUS
 62
     0
100
AcDbLine
 10
5.0
 20
0.0
 30
0.0
 11
5.25
 21
0.0
 31
0.0
  0
ENDBLK
  5
385
330
46B
100
AcDbEntity
  8
0
100
AcDbBlockEnd
  0
BLOCK
  5
46C
330
46D
100
AcDbEntity
  8
0
100
AcDbBlockBegin
  2
SW_CENTERMARKSYMBOL_8
 70
     0
 10
0.0
 20
0.0
 30
0.0
  3
SW_CENTERMARKSYMBOL_8
  1

  0
LINE
  5
392
330
46D
100
AcDbEntity
  8
0
  6
CONTINUOUS
 62
     0
100
AcDbLine
 10
0.0
 20
0.0
 30
0.0
 11
0.0
 21
2.5
 31
0.0
  0
LINE
  5
393
330
46D
100
AcDbEntity
  8
0
  6
CONTINUOUS
 62
     0
100
AcDbLine
 10
0.0
 20
0.0
 30
0.0
 11
-2.5
 21
0.0
 31
0.0
  0
LINE
  5
394
330
46D
100
AcDbEntity
  8
0
  6
CONTINUOUS
 62
     0
100
AcDbLine
 10
0.0
 20
0.0
 30
0.0
 11
0.0
 21
-2.5
 31
0.0
  0
LINE
  5
395
330
46D
100
AcDbEntity
  8
0
  6
CONTINUOUS
 62
     0
100
AcDbLine
 10
0.0
 20
0.0
 30
0.0
 11
2.5
 21
0.0
 31
0.0
  0
LINE
  5
396
330
46D
100
AcDbEntity
  8
0
  6
CONTINUOUS
 62
     0
100
AcDbLine
 10
0.0
 20
5.0
 30
0.0
 11
0.0
 21
5.25
 31
0.0
  0
LINE
  5
397
330
46D
100
AcDbEntity
  8
0
  6
CONTINUOUS
 62
     0
100
AcDbLine
 10
-5.0
 20
0.0
 30
0.0
 11
-5.25
 21
0.0
 31
0.0
  0
LINE
  5
398
330
46D
100
AcDbEntity
  8
0
  6
CONTINUOUS
 62
     0
100
AcDbLine
 10
0.0
 20
-5.0
 30
0.0
 11
0.0
 21
-5.25
 31
0.0
  0
LINE
  5
399
330
46D
100
AcDbEntity
  8
0
  6
CONTINUOUS
 62
     0
100
AcDbLine
 10
5.0
 20
0.0
 30
0.0
 11
5.25
 21
0.0
 31
0.0
  0
ENDBLK
  5
391
330
46D
100
AcDbEntity
  8
0
100
AcDbBlockEnd
  0
BLOCK
  5
46E
330
46F
100
AcDbEntity
  8
0
100
AcDbBlockBegin
  2
_D_28
 70
     0
 10
0.0
 20
0.0
 30
0.0
  3
_D_28
  1

  0
SOLID
  5
3DB
330
46F
100
AcDbEntity
  8
0
  6
CONTINUOUS
 62
     7
100
AcDbTrace
 10
186.4169607592
 20
92.0316012085
 30
0.0
 11
186.8015761439
 21
94.5316012085
 31
0.0
 12
186.0323453746
 22
94.5316012085
 32
0.0
 13
186.0323453746
 23
94.5316012085
 33
0.0
  0
SOLID
  5
3DC
330
46F
100
AcDbEntity
  8
0
  6
CONTINUOUS
 62
     7
100
AcDbTrace
 10
186.4169607592
 20
76.5316012085
 30
0.0
 11
186.0323453746
 21
74.0316012085
 31
0.0
 12
186.8015761439
 22
74.0316012085
 32
0.0
 13
186.8015761439
 23
74.0316012085
 33
0.0
  0
LINE
  5
3DD
330
46F
100
AcDbEntity
  8
0
  6
CONTINUOUS
 62
     7
100
AcDbLine
 10
163.4382176343
 20
92.0316012085
 30
0.0
 11
187.4169607592
 21
92.0316012085
 31
0.0
  0
LINE
  5
3DE
330
46F
100
AcDbEntity
  8
0
  6
CONTINUOUS
 62
     7
100
AcDbLine
 10
163.4382176343
 20
76.5316012085
 30
0.0
 11
187.4169607592
 21
76.5316012085
 31
0.0
  0
LINE
  5
3DF
330
46F
100
AcDbEntity
  8
0
  6
CONTINUOUS
 62
     7
100
AcDbLine
 10
186.4169607592
 20
92.0316012085
 30
0.0
 11
186.4169607592
 21
96.8392935162
 31
0.0
  0
LINE
  5
3E0
330
46F
100
AcDbEntity
  8
0
  6
CONTINUOUS
 62
     7
100
AcDbLine
 10
186.4169607592
 20
92.0316012085
 30
0.0
 11
186.4169607592
 21
76.5316012085
 31
0.0
  0
LINE
  5
3E1
330
46F
100
AcDbEntity
  8
0
  6
CONTINUOUS
 62
     7
100
AcDbLine
 10
186.4169607592
 20
76.5316012085
 30
0.0
 11
186.4169607592
 21
71.7239089008
 31
0.0
  0
TEXT
  5
3E2
330
46F
100
AcDbEntity
  8
0
  6
CONTINUOUS
 62
     7
100
AcDbText
 10
-3033.7523884961
 20
80.9395874023
 30
27.3044294622
 40
2.5
  1
15.5
 50
90.0
 41
0.7
 11
-3036.2523884961
 21
80.9395874023
 31
27.3044294622
100
AcDbText
 73
     3
  0
ENDBLK
  5
3DA
330
46F
100
AcDbEntity
  8
0
100
AcDbBlockEnd
  0
BLOCK
  5
470
330
471
100
AcDbEntity
  8
0
100
AcDbBlockBegin
  2
_D_29
 70
     0
 10
0.0
 20
0.0
 30
0.0
  3
_D_29
  1

  0
SOLID
  5
3E7
330
471
100
AcDbEntity
  8
0
  6
CONTINUOUS
 62
     7
100
AcDbTrace
 10
82.8419908372
 20
93.2816012085
 30
0.0
 11
83.2266062218
 21
95.7816012085
 31
0.0
 12
82.4573754526
 22
95.7816012085
 32
0.0
 13
82.4573754526
 23
95.7816012085
 33
0.0
  0
SOLID
  5
3E8
330
471
100
AcDbEntity
  8
0
  6
CONTINUOUS
 62
     7
100
AcDbTrace
 10
82.8419908372
 20
92.0316012085
 30
0.0
 11
82.4573754526
 21
89.5316012085
 31
0.0
 12
83.2266062218
 22
89.5316012085
 32
0.0
 13
83.2266062218
 23
89.5316012085
 33
0.0
  0
LINE
  5
3E9
330
471
100
AcDbEntity
  8
0
  6
CONTINUOUS
 62
     7
100
AcDbLine
 10
77.4382176343
 20
93.2816012085
 30
0.0
 11
83.8419908372
 21
93.2816012085
 31
0.0
  0
LINE
  5
3EA
330
471
100
AcDbEntity
  8
0
  6
CONTINUOUS
 62
     7
100
AcDbLine
 10
82.8419908372
 20
93.2816012085
 30
0.0
 11
82.8419908372
 21
110.6238757224
 31
0.0
  0
LINE
  5
3EB
330
471
100
AcDbEntity
  8
0
  6
CONTINUOUS
 62
     7
100
AcDbLine
 10
82.8419908372
 20
93.2816012085
 30
0.0
 11
82.8419908372
 21
92.0316012085
 31
0.0
  0
LINE
  5
3EC
330
471
100
AcDbEntity
  8
0
  6
CONTINUOUS
 62
     7
100
AcDbLine
 10
82.8419908372
 20
92.0316012085
 30
0.0
 11
82.8419908372
 21
87.2239089008
 31
0.0
  0
TEXT
  5
3ED
330
471
100
AcDbEntity
  8
0
  6
CONTINUOUS
 62
     7
100
AcDbText
 10
-3137.3273584181
 20
94.3912361712
 30
27.3044294622
 40
2.5
  1
1.25 / 
 50
90.0
 41
0.6
 11
-3139.8273584181
 21
94.3912361712
 31
27.3044294622
100
AcDbText
 73
     3
  0
TEXT
  5
3EE
330
471
100
AcDbEntity
  8
0
  6
CONTINUOUS
 62
     7
100
AcDbText
 10
-3137.3273584181
 20
103.9398471788
 30
27.3044294622
 40
2.5
  1
1.25
 50
90.0
 41
0.7
 11
-3139.8273584181
 21
103.9398471788
 31
27.3044294622
100
AcDbText
 73
     3
  0
ENDBLK
  5
3E6
330
471
100
AcDbEntity
  8
0
100
AcDbBlockEnd
  0
ENDSEC
  0
SECTION
  2
ENTITIES
  0
LINE
  5
64
330
40A
100
AcDbEntity
  8
0
  6
CONTINUOUS
 62
     7
100
AcDbLine
 10
77.4382176343
 20
377.7068665702
 30
0.0
 11
74.4382176343
 21
377.7068665702
 31
0.0
  0
LINE
  5
65
330
40A
100
AcDbEntity
  8
0
  6
CONTINUOUS
 62
     7
100
AcDbLine
 10
74.4382176343
 20
147.7068665702
 30
0.0
 11
77.4382176343
 21
147.7068665702
 31
0.0
  0
LINE
  5
66
330
40A
100
AcDbEntity
  8
0
  6
CONTINUOUS
 62
     7
100
AcDbLine
 10
64.8382176343
 20
279.7068665702
 30
0.0
 11
64.8382176343
 21
275.7068665702
 31
0.0
  0
LINE
  5
67
330
40A
100
AcDbEntity
  8
0
  6
CONTINUOUS
 62
     7
100
AcDbLine
 10
63.4382176343
 20
328.0068665702
 30
0.0
 11
63.4382176343
 21
296.0068665702
 31
0.0
  0
LINE
  5
68
330
40A
100
AcDbEntity
  8
0
  6
CONTINUOUS
 62
     7
100
AcDbLine
 10
77.4382176343
 20
340.803157772
 30
0.0
 11
78.9382176343
 21
340.803157772
 31
0.0
  0
LINE
  5
69
330
40A
100
AcDbEntity
  8
0
  6
CONTINUOUS
 62
     7
100
AcDbLine
 10
77.4382176343
 20
343.4568665702
 30
0.0
 11
108.0382176343
 21
343.4568665702
 31
0.0
  0
LINE
  5
6A
330
40A
100
AcDbEntity
  8
0
  6
CONTINUOUS
 62
     7
100
AcDbLine
 10
108.0382176343
 20
342.7068665702
 30
0.0
 11
108.0382176343
 21
343.4568665702
 31
0.0
  0
LINE
  5
6B
330
40A
100
AcDbEntity
  8
0
  6
CONTINUOUS
 62
     7
100
AcDbLine
 10
95.4382176343
 20
342.7068665702
 30
0.0
 11
108.0382176343
 21
342.7068665702
 31
0.0
  0
LINE
  5
6C
330
40A
100
AcDbEntity
  8
0
  6
CONTINUOUS
 62
     7
100
AcDbLine
 10
95.4382176343
 20
341.2068665702
 30
0.0
 11
95.4382176343
 21
342.7068665702
 31
0.0
  0
LINE
  5
6D
330
40A
100
AcDbEntity
  8
0
  6
CONTINUOUS
 62
     7
100
AcDbLine
 10
95.4382176343
 20
341.2068665702
 30
0.0
 11
89.4382176343
 21
341.2068665702
 31
0.0
  0
LINE
  5
6E
330
40A
100
AcDbEntity
  8
0
  6
CONTINUOUS
 62
     7
100
AcDbLine
 10
89.4382176343
 20
341.2068665702
 30
0.0
 11
89.4382176343
 21
342.7068665702
 31
0.0
  0
LINE
  5
6F
330
40A
100
AcDbEntity
  8
0
  6
CONTINUOUS
 62
     7
100
AcDbLine
 10
78.9382176343
 20
342.7068665702
 30
0.0
 11
89.4382176343
 21
342.7068665702
 31
0.0
  0
LINE
  5
70
330
40A
100
AcDbEntity
  8
0
  6
CONTINUOUS
 62
     7
100
AcDbLine
 10
78.9382176343
 20
342.7068665702
 30
0.0
 11
78.9382176343
 21
340.803157772
 31
0.0
  0
LINE
  5
71
330
40A
100
AcDbEntity
  8
0
  6
CONTINUOUS
 62
     7
100
AcDbLine
 10
110.0382176343
 20
343.4568665702
 30
0.0
 11
110.0382176343
 21
342.7068665702
 31
0.0
  0
LINE
  5
72
330
40A
100
AcDbEntity
  8
0
  6
CONTINUOUS
 62
     7
100
AcDbLine
 10
108.0382176343
 20
343.4568665702
 30
0.0
 11
110.0382176343
 21
343.4568665702
 31
0.0
  0
LINE
  5
73
330
40A
100
AcDbEntity
  8
0
  6
CONTINUOUS
 62
     7
100
AcDbLine
 10
109.7702684419
 20
342.7068665702
 30
0.0
 11
108.0382176343
 21
342.7068665702
 31
0.0
  0
LINE
  5
74
330
40A
100
AcDbEntity
  8
0
  6
CONTINUOUS
 62
     7
100
AcDbLine
 10
78.9382176343
 20
184.6105753684
 30
0.0
 11
77.4382176343
 21
184.6105753684
 31
0.0
  0
LINE
  5
75
330
40A
100
AcDbEntity
  8
0
  6
CONTINUOUS
 62
     7
100
AcDbLine
 10
89.4382176343
 20
182.7068665702
 30
0.0
 11
78.9382176343
 21
182.7068665702
 31
0.0
  0
LINE
  5
76
330
40A
100
AcDbEntity
  8
0
  6
CONTINUOUS
 62
     7
100
AcDbLine
 10
89.4382176343
 20
184.2068665702
 30
0.0
 11
89.4382176343
 21
182.7068665702
 31
0.0
  0
LINE
  5
77
330
40A
100
AcDbEntity
  8
0
  6
CONTINUOUS
 62
     7
100
AcDbLine
 10
89.4382176343
 20
184.2068665702
 30
0.0
 11
95.4382176343
 21
184.2068665702
 31
0.0
  0
LINE
  5
78
330
40A
100
AcDbEntity
  8
0
  6
CONTINUOUS
 62
     7
100
AcDbLine
 10
95.4382176343
 20
184.2068665702
 30
0.0
 11
95.4382176343
 21
182.7068665702
 31
0.0
  0
LINE
  5
79
330
40A
100
AcDbEntity
  8
0
  6
CONTINUOUS
 62
     7
100
AcDbLine
 10
108.0382176343
 20
182.7068665702
 30
0.0
 11
95.4382176343
 21
182.7068665702
 31
0.0
  0
LINE
  5
7A
330
40A
100
AcDbEntity
  8
0
  6
CONTINUOUS
 62
     7
100
AcDbLine
 10
108.0382176343
 20
181.9568665702
 30
0.0
 11
108.0382176343
 21
182.7068665702
 31
0.0
  0
LINE
  5
7B
330
40A
100
AcDbEntity
  8
0
  6
CONTINUOUS
 62
     7
100
AcDbLine
 10
108.0382176343
 20
181.9568665702
 30
0.0
 11
77.4382176343
 21
181.9568665702
 31
0.0
  0
LINE
  5
7C
330
40A
100
AcDbEntity
  8
0
  6
CONTINUOUS
 62
     7
100
AcDbLine
 10
78.9382176343
 20
182.7068665702
 30
0.0
 11
78.9382176343
 21
184.6105753684
 31
0.0
  0
LINE
  5
7D
330
40A
100
AcDbEntity
  8
0
  6
CONTINUOUS
 62
     7
100
AcDbLine
 10
110.0382176343
 20
182.7068665702
 30
0.0
 11
110.0382176343
 21
181.9568665702
 31
0.0
  0
LINE
  5
7E
330
40A
100
AcDbEntity
  8
0
  6
CONTINUOUS
 62
     7
100
AcDbLine
 10
110.0382176343
 20
181.9568665702
 30
0.0
 11
108.0382176343
 21
181.9568665702
 31
0.0
  0
LINE
  5
7F
330
40A
100
AcDbEntity
  8
0
  6
CONTINUOUS
 62
     7
100
AcDbLine
 10
108.0382176343
 20
182.7068665702
 30
0.0
 11
109.7702684419
 21
182.7068665702
 31
0.0
  0
LINE
  5
80
330
40A
100
AcDbEntity
  8
0
  6
CONTINUOUS
 62
     7
100
AcDbLine
 10
77.4382176343
 20
368.7068665702
 30
0.0
 11
77.4382176343
 21
377.7068665702
 31
0.0
  0
LINE
  5
81
330
40A
100
AcDbEntity
  8
0
  6
CONTINUOUS
 62
     7
100
AcDbLine
 10
77.4382176343
 20
368.7068665702
 30
0.0
 11
74.4382176343
 21
368.7068665702
 31
0.0
  0
LINE
  5
82
330
40A
100
AcDbEntity
  8
0
  6
CONTINUOUS
 62
     7
100
AcDbLine
 10
74.4382176343
 20
368.7068665702
 30
0.0
 11
74.4382176343
 21
377.7068665702
 31
0.0
  0
LINE
  5
83
330
40A
100
AcDbEntity
  8
0
  6
CONTINUOUS
 62
     7
100
AcDbLine
 10
77.4382176343
 20
156.7068665702
 30
0.0
 11
74.4382176343
 21
156.7068665702
 31
0.0
  0
LINE
  5
84
330
40A
100
AcDbEntity
  8
0
  6
CONTINUOUS
 62
     7
100
AcDbLine
 10
74.4382176343
 20
156.7068665702
 30
0.0
 11
74.4382176343
 21
368.7068665702
 31
0.0
  0
LINE
  5
85
330
40A
100
AcDbEntity
  8
0
  6
CONTINUOUS
 62
     7
100
AcDbLine
 10
77.4382176343
 20
156.7068665702
 30
0.0
 11
77.4382176343
 21
368.7068665702
 31
0.0
  0
LINE
  5
86
330
40A
100
AcDbEntity
  8
0
  6
CONTINUOUS
 62
     7
100
AcDbLine
 10
74.4382176343
 20
147.7068665702
 30
0.0
 11
74.4382176343
 21
156.7068665702
 31
0.0
  0
LINE
  5
87
330
40A
100
AcDbEntity
  8
0
  6
CONTINUOUS
 62
     7
100
AcDbLine
 10
77.4382176343
 20
147.7068665702
 30
0.0
 11
77.4382176343
 21
156.7068665702
 31
0.0
  0
LINE
  5
88
330
40A
100
AcDbEntity
  8
0
  6
CONTINUOUS
 62
     7
100
AcDbLine
 10
164.1453244155
 20
199.4139733514
 30
0.0
 11
163.4382176343
 21
200.1210801326
 31
0.0
  0
LINE
  5
89
330
40A
100
AcDbEntity
  8
0
  6
CONTINUOUS
 62
     7
100
AcDbLine
 10
164.4382176343
 20
200.1210801326
 30
0.0
 11
163.4382176343
 21
200.1210801326
 31
0.0
  0
ARC
  5
8A
330
40A
100
AcDbEntity
  8
0
  6
CONTINUOUS
 62
     7
100
AcDbCircle
 10
163.4382176343
 20
200.1210801326
 30
0.0
 40
1.000000000000048
100
AcDbArc
 50
315.0
 51
0.0
  0
LINE
  5
8B
330
40A
100
AcDbEntity
  8
0
  6
CONTINUOUS
 62
     7
100
AcDbLine
 10
147.0240040719
 20
341.7068665702
 30
0.0
 11
77.4382176343
 21
341.7068665702
 31
0.0
  0
LINE
  5
8C
330
40A
100
AcDbEntity
  8
0
  6
CONTINUOUS
 62
     7
100
AcDbLine
 10
163.4382176343
 20
325.2926530078
 30
0.0
 11
147.0240040719
 21
341.7068665702
 31
0.0
  0
LINE
  5
8D
330
40A
100
AcDbEntity
  8
0
  6
CONTINUOUS
 62
     7
100
AcDbLine
 10
163.4382176343
 20
200.1210801326
 30
0.0
 11
163.4382176343
 21
325.2926530078
 31
0.0
  0
LINE
  5
8E
330
40A
100
AcDbEntity
  8
0
  6
CONTINUOUS
 62
     7
100
AcDbLine
 10
147.0240040719
 20
183.7068665702
 30
0.0
 11
163.4382176343
 21
200.1210801326
 31
0.0
  0
LINE
  5
8F
330
40A
100
AcDbEntity
  8
0
  6
CONTINUOUS
 62
     7
100
AcDbLine
 10
77.4382176343
 20
183.7068665702
 30
0.0
 11
147.0240040719
 21
183.7068665702
 31
0.0
  0
ARC
  5
90
330
40A
100
AcDbEntity
  8
0
  6
CONTINUOUS
 62
     7
100
AcDbCircle
 10
134.4382176343
 20
192.7068665702
 30
0.0
 40
5.099999999999994
100
AcDbArc
 50
180.0
 51
0.0
  0
LINE
  5
91
330
40A
100
AcDbEntity
  8
0
  6
CONTINUOUS
 62
     7
100
AcDbLine
 10
139.5382176343
 20
202.8478605351
 30
0.0
 11
139.5382176343
 21
192.7068665702
 31
0.0
  0
ARC
  5
92
330
40A
100
AcDbEntity
  8
0
  6
CONTINUOUS
 62
     7
100
AcDbCircle
 10
134.4382176343
 20
212.7068665702
 30
0.0
 40
11.1
100
AcDbArc
 50
297.3522329091
 51
242.6477670909
  0
LINE
  5
93
330
40A
100
AcDbEntity
  8
0
  6
CONTINUOUS
 62
     7
100
AcDbLine
 10
129.3382176343
 20
192.7068665702
 30
0.0
 11
129.3382176343
 21
202.8478605351
 31
0.0
  0
CIRCLE
  5
94
330
40A
100
AcDbEntity
  8
0
  6
CONTINUOUS
 62
     7
100
AcDbCircle
 10
134.4382176343
 20
269.2068665702
 30
0.0
 40
3.750000000000028
  0
CIRCLE
  5
95
330
40A
100
AcDbEntity
  8
0
  6
CONTINUOUS
 62
     7
100
AcDbCircle
 10
153.4382176343
 20
290.7068665702
 30
0.0
 40
3.249999999999972
  0
CIRCLE
  5
96
330
40A
100
AcDbEntity
  8
0
  6
CONTINUOUS
 62
     7
100
AcDbCircle
 10
115.4382176343
 20
205.2068665702
 30
0.0
 40
3.25
  0
CIRCLE
  5
97
330
40A
100
AcDbEntity
  8
0
  6
CONTINUOUS
 62
     7
100
AcDbCircle
 10
153.4382176343
 20
205.2068665702
 30
0.0
 40
3.249999999999972
  0
CIRCLE
  5
98
330
40A
100
AcDbEntity
  8
0
  6
CONTINUOUS
 62
     7
100
AcDbCircle
 10
134.4382176343
 20
290.7068665702
 30
0.0
 40
8.650000000000006
  0
CIRCLE
  5
99
330
40A
100
AcDbEntity
  8
0
  6
CONTINUOUS
 62
     7
100
AcDbCircle
 10
124.4382176343
 20
199.7068665702
 30
0.0
 40
2.599999999999994
  0
CIRCLE
  5
9A
330
40A
100
AcDbEntity
  8
0
  6
CONTINUOUS
 62
     7
100
AcDbCircle
 10
144.4382176343
 20
199.7068665702
 30
0.0
 40
2.599999999999994
  0
CIRCLE
  5
9B
330
40A
100
AcDbEntity
  8
0
  6
CONTINUOUS
 62
     7
100
AcDbCircle
 10
115.4382176343
 20
290.7068665702
 30
0.0
 40
3.250000000000014
  0
LINE
  5
9C
330
40A
100
AcDbEntity
  8
0
  6
CONTINUOUS
 62
     7
100
AcDbLine
 10
147.7311108531
 20
342.4139733514
 30
0.0
 11
164.1453244155
 21
325.999759789
 31
0.0
  0
LINE
  5
9D
330
40A
100
AcDbEntity
  8
0
  6
CONTINUOUS
 62
     7
100
AcDbLine
 10
164.1453244155
 20
325.999759789
 30
0.0
 11
163.4382176343
 21
325.2926530078
 31
0.0
  0
LINE
  5
9E
330
40A
100
AcDbEntity
  8
0
  6
CONTINUOUS
 62
     7
100
AcDbLine
 10
147.7311108531
 20
342.4139733514
 30
0.0
 11
147.0240040719
 21
341.7068665702
 31
0.0
  0
LINE
  5
9F
330
40A
100
AcDbEntity
  8
0
  6
CONTINUOUS
 62
     7
100
AcDbLine
 10
147.0240040719
 20
342.7068665702
 30
0.0
 11
147.0240040719
 21
341.7068665702
 31
0.0
  0
ARC
  5
A0
330
40A
100
AcDbEntity
  8
0
  6
CONTINUOUS
 62
     7
100
AcDbCircle
 10
147.0240040719
 20
341.7068665702
 30
0.0
 40
1.0
100
AcDbArc
 50
45.0
 51
90.0
  0
LINE
  5
A1
330
40A
100
AcDbEntity
  8
0
  6
CONTINUOUS
 62
     7
100
AcDbLine
 10
164.4382176343
 20
325.2926530078
 30
0.0
 11
163.4382176343
 21
325.2926530078
 31
0.0
  0
ARC
  5
A2
330
40A
100
AcDbEntity
  8
0
  6
CONTINUOUS
 62
     7
100
AcDbCircle
 10
163.4382176343
 20
325.2926530078
 30
0.0
 40
1.0
100
AcDbArc
 50
0.0
 51
45.0
  0
ARC
  5
A3
330
40A
100
AcDbEntity
  8
0
  6
CONTINUOUS
 62
     7
100
AcDbCircle
 10
147.0240040719
 20
183.7068665702
 30
0.0
 40
1.000000000000048
100
AcDbArc
 50
270.0
 51
315.0
  0
LINE
  5
A4
330
40A
100
AcDbEntity
  8
0
  6
CONTINUOUS
 62
     7
100
AcDbLine
 10
147.0240040719
 20
183.7068665702
 30
0.0
 11
147.0240040719
 21
182.7068665702
 31
0.0
  0
LINE
  5
A5
330
40A
100
AcDbEntity
  8
0
  6
CONTINUOUS
 62
     7
100
AcDbLine
 10
147.7311108531
 20
182.999759789
 30
0.0
 11
147.0240040719
 21
183.7068665702
 31
0.0
  0
LINE
  5
A6
330
40A
100
AcDbEntity
  8
0
  6
CONTINUOUS
 62
     7
100
AcDbLine
 10
164.4382176343
 20
325.2926530078
 30
0.0
 11
164.4382176343
 21
200.1210801326
 31
0.0
  0
LINE
  5
A7
330
40A
100
AcDbEntity
  8
0
  6
CONTINUOUS
 62
     7
100
AcDbLine
 10
109.7702684419
 20
342.7068665702
 30
0.0
 11
147.0240040719
 21
342.7068665702
 31
0.0
  0
LINE
  5
A8
330
40A
100
AcDbEntity
  8
0
  6
CONTINUOUS
 62
     7
100
AcDbLine
 10
164.1453244155
 20
199.4139733514
 30
0.0
 11
147.7311108531
 21
182.999759789
 31
0.0
  0
CIRCLE
  5
A9
330
40A
100
AcDbEntity
  8
0
  6
CONTINUOUS
 62
     7
100
AcDbCircle
 10
134.4382176343
 20
290.7068665702
 30
0.0
 40
7.5
  0
CIRCLE
  5
AA
330
40A
100
AcDbEntity
  8
0
  6
CONTINUOUS
 62
     7
100
AcDbCircle
 10
134.4382176343
 20
290.7068665702
 30
0.0
 40
8.5
  0
LINE
  5
AB
330
40A
100
AcDbEntity
  8
0
  6
CONTINUOUS
 62
     7
100
AcDbLine
 10
147.0240040719
 20
182.7068665702
 30
0.0
 11
109.7702684419
 21
182.7068665702
 31
0.0
  0
LINE
  5
AC
330
40A
100
AcDbEntity
  8
0
  6
CONTINUOUS
 62
     7
100
AcDbLine
 10
74.0836632184
 20
314.1068665702
 30
0.0
 11
71.2242176343
 21
314.1068665702
 31
0.0
  0
LINE
  5
AD
330
40A
100
AcDbEntity
  8
0
  6
CONTINUOUS
 62
     7
100
AcDbLine
 10
71.2242176343
 20
324.0251371383
 30
0.0
 11
71.2242176343
 21
314.1068665702
 31
0.0
  0
LINE
  5
AE
330
40A
100
AcDbEntity
  8
0
  6
CONTINUOUS
 62
     7
100
AcDbLine
 10
71.2242176343
 20
309.9068665702
 30
0.0
 11
71.2242176343
 21
299.9885960021
 31
0.0
  0
LINE
  5
AF
330
40A
100
AcDbEntity
  8
0
  6
CONTINUOUS
 62
     7
100
AcDbLine
 10
74.0836632184
 20
309.9068665702
 30
0.0
 11
71.2242176343
 21
309.9068665702
 31
0.0
  0
LINE
  5
B0
330
40A
100
AcDbEntity
  8
0
  6
CONTINUOUS
 62
     7
100
AcDbLine
 10
74.0836632184
 20
314.1068665702
 30
0.0
 11
74.0836632184
 21
309.9068665702
 31
0.0
  0
LINE
  5
B1
330
40A
100
AcDbEntity
  8
0
  6
CONTINUOUS
 62
     7
100
AcDbLine
 10
74.4382176343
 20
299.9885960021
 30
0.0
 11
71.2242176343
 21
299.9885960021
 31
0.0
  0
LINE
  5
B2
330
40A
100
AcDbEntity
  8
0
  6
CONTINUOUS
 62
     7
100
AcDbLine
 10
74.4382176343
 20
324.0251371383
 30
0.0
 11
71.2242176343
 21
324.0251371383
 31
0.0
  0
LINE
  5
B3
330
40A
100
AcDbEntity
  8
0
  6
CONTINUOUS
 62
     7
100
AcDbLine
 10
129.7839111775
 20
295.0470775566
 30
0.0
 11
138.7784286207
 21
295.3611730269
 31
0.0
  0
LINE
  5
B4
330
40A
100
AcDbEntity
  8
0
  6
CONTINUOUS
 62
     7
100
AcDbLine
 10
139.092524091
 20
286.3666555838
 30
0.0
 11
130.0980066479
 21
286.0525601134
 31
0.0
  0
LINE
  5
B5
330
40A
100
AcDbEntity
  8
0
  6
CONTINUOUS
 62
     7
100
AcDbLine
 10
130.0980066479
 20
286.0525601134
 30
0.0
 11
129.7839111775
 21
295.0470775566
 31
0.0
  0
LINE
  5
B6
330
40A
100
AcDbEntity
  8
0
  6
CONTINUOUS
 62
     7
100
AcDbLine
 10
138.7784286207
 20
295.3611730269
 30
0.0
 11
139.092524091
 21
286.3666555838
 31
0.0
  0
LINE
  5
B7
330
40A
100
AcDbEntity
  8
0
  6
CONTINUOUS
 62
     7
100
AcDbLine
 10
71.4240040719
 20
275.7068665702
 30
0.0
 11
71.4240040719
 21
279.7068665702
 31
0.0
  0
LINE
  5
B8
330
40A
100
AcDbEntity
  8
0
  6
CONTINUOUS
 62
     7
100
AcDbLine
 10
72.8382176343
 20
279.7068665702
 30
0.0
 11
72.8382176343
 21
275.7068665702
 31
0.0
  0
LINE
  5
B9
330
40A
100
AcDbEntity
  8
0
  6
CONTINUOUS
 62
     7
100
AcDbLine
 10
72.8382176343
 20
275.7068665702
 30
0.0
 11
71.4240040719
 21
275.7068665702
 31
0.0
  0
LINE
  5
BA
330
40A
100
AcDbEntity
  8
0
  6
CONTINUOUS
 62
     7
100
AcDbLine
 10
71.4240040719
 20
279.7068665702
 30
0.0
 11
72.8382176343
 21
279.7068665702
 31
0.0
  0
LINE
  5
BB
330
40A
100
AcDbEntity
  8
0
  6
CONTINUOUS
 62
     7
100
AcDbLine
 10
72.8382176343
 20
275.7068665702
 30
0.0
 11
74.4382176343
 21
275.7068665702
 31
0.0
  0
LINE
  5
BC
330
40A
100
AcDbEntity
  8
0
  6
CONTINUOUS
 62
     7
100
AcDbLine
 10
72.8382176343
 20
279.7068665702
 30
0.0
 11
74.4382176343
 21
279.7068665702
 31
0.0
  0
LINE
  5
BD
330
40A
100
AcDbEntity
  8
0
  6
CONTINUOUS
 62
     7
100
AcDbLine
 10
68.7910159679
 20
309.9068665702
 30
0.0
 11
68.7910159679
 21
305.2568665702
 31
0.0
  0
LINE
  5
BE
330
40A
100
AcDbEntity
  8
0
  6
CONTINUOUS
 62
     7
100
AcDbLine
 10
65.4490726426
 20
314.1068665702
 30
0.0
 11
65.4490726426
 21
309.9068665702
 31
0.0
  0
LINE
  5
BF
330
40A
100
AcDbEntity
  8
0
  6
CONTINUOUS
 62
     7
100
AcDbLine
 10
68.7910159679
 20
318.7568665702
 30
0.0
 11
68.7910159679
 21
314.1068665702
 31
0.0
  0
LINE
  5
C0
330
40A
100
AcDbEntity
  8
0
  6
CONTINUOUS
 62
     7
100
AcDbLine
 10
65.4240040719
 20
275.7068665702
 30
0.0
 11
65.4240040719
 21
279.7068665702
 31
0.0
  0
LINE
  5
C1
330
40A
100
AcDbEntity
  8
0
  6
CONTINUOUS
 62
     7
100
AcDbLine
 10
71.4240040719
 20
275.7068665702
 30
0.0
 11
65.4240040719
 21
275.7068665702
 31
0.0
  0
LINE
  5
C2
330
40A
100
AcDbEntity
  8
0
  6
CONTINUOUS
 62
     7
100
AcDbLine
 10
71.4240040719
 20
279.7068665702
 30
0.0
 11
65.4240040719
 21
279.7068665702
 31
0.0
  0
LINE
  5
C3
330
40A
100
AcDbEntity
  8
0
  6
CONTINUOUS
 62
     7
100
AcDbLine
 10
54.7382176343
 20
251.7068665702
 30
0.0
 11
74.4382176343
 21
251.7068665702
 31
0.0
  0
LINE
  5
C4
330
40A
100
AcDbEntity
  8
0
  6
CONTINUOUS
 62
     7
100
AcDbLine
 10
54.7382176343
 20
251.7068665702
 30
0.0
 11
54.7382176343
 21
251.4068665702
 31
0.0
  0
LINE
  5
C5
330
40A
100
AcDbEntity
  8
0
  6
CONTINUOUS
 62
     7
100
AcDbLine
 10
54.4382176343
 20
251.4068665702
 30
0.0
 11
54.7382176343
 21
251.4068665702
 31
0.0
  0
ARC
  5
C6
330
40A
100
AcDbEntity
  8
0
  6
CONTINUOUS
 62
     7
100
AcDbCircle
 10
54.7382176343
 20
251.4068665702
 30
0.0
 40
0.3000000000000114
100
AcDbArc
 50
90.0
 51
180.0
  0
LINE
  5
C7
330
40A
100
AcDbEntity
  8
0
  6
CONTINUOUS
 62
     7
100
AcDbLine
 10
54.7382176343
 20
222.0068665702
 30
0.0
 11
54.7382176343
 21
221.7068665702
 31
0.0
  0
ARC
  5
C8
330
40A
100
AcDbEntity
  8
0
  6
CONTINUOUS
 62
     7
100
AcDbCircle
 10
54.7382176343
 20
222.0068665702
 30
0.0
 40
0.3000000000000114
100
AcDbArc
 50
180.0
 51
270.0
  0
LINE
  5
C9
330
40A
100
AcDbEntity
  8
0
  6
CONTINUOUS
 62
     7
100
AcDbLine
 10
54.7382176343
 20
222.0068665702
 30
0.0
 11
54.4382176343
 21
222.0068665702
 31
0.0
  0
LINE
  5
CA
330
40A
100
AcDbEntity
  8
0
  6
CONTINUOUS
 62
     7
100
AcDbLine
 10
54.7382176343
 20
251.4068665702
 30
0.0
 11
54.7382176343
 21
222.0068665702
 31
0.0
  0
LINE
  5
CB
330
40A
100
AcDbEntity
  8
0
  6
CONTINUOUS
 62
     7
100
AcDbLine
 10
54.4382176343
 20
222.0068665702
 30
0.0
 11
54.4382176343
 21
251.4068665702
 31
0.0
  0
LINE
  5
CC
330
40A
100
AcDbEntity
  8
0
  6
CONTINUOUS
 62
     7
100
AcDbLine
 10
74.4382176343
 20
221.7068665702
 30
0.0
 11
54.7382176343
 21
221.7068665702
 31
0.0
  0
LINE
  5
CD
330
40A
100
AcDbEntity
  8
0
  6
CONTINUOUS
 62
     7
100
AcDbLine
 10
70.7842176343
 20
324.0251371383
 30
0.0
 11
70.7842176343
 21
314.1068665702
 31
0.0
  0
LINE
  5
CE
330
40A
100
AcDbEntity
  8
0
  6
CONTINUOUS
 62
     7
100
AcDbLine
 10
70.789576618
 20
314.1068665702
 30
0.0
 11
70.7842176343
 21
314.1068665702
 31
0.0
  0
LINE
  5
CF
330
40A
100
AcDbEntity
  8
0
  6
CONTINUOUS
 62
     7
100
AcDbLine
 10
71.2242176343
 20
314.1068665702
 30
0.0
 11
70.789576618
 21
314.1068665702
 31
0.0
  0
LINE
  5
D0
330
40A
100
AcDbEntity
  8
0
  6
CONTINUOUS
 62
     7
100
AcDbLine
 10
71.2242176343
 20
324.0251371383
 30
0.0
 11
70.7842176343
 21
324.0251371383
 31
0.0
  0
LINE
  5
D1
330
40A
100
AcDbEntity
  8
0
  6
CONTINUOUS
 62
     7
100
AcDbLine
 10
70.7842176343
 20
309.9068665702
 30
0.0
 11
70.7842176343
 21
299.9885960021
 31
0.0
  0
LINE
  5
D2
330
40A
100
AcDbEntity
  8
0
  6
CONTINUOUS
 62
     7
100
AcDbLine
 10
71.2242176343
 20
309.9068665702
 30
0.0
 11
70.789576618
 21
309.9068665702
 31
0.0
  0
LINE
  5
D3
330
40A
100
AcDbEntity
  8
0
  6
CONTINUOUS
 62
     7
100
AcDbLine
 10
70.789576618
 20
309.9068665702
 30
0.0
 11
70.7842176343
 21
309.9068665702
 31
0.0
  0
LINE
  5
D4
330
40A
100
AcDbEntity
  8
0
  6
CONTINUOUS
 62
     7
100
AcDbLine
 10
71.2242176343
 20
299.9885960021
 30
0.0
 11
70.7842176343
 21
299.9885960021
 31
0.0
  0
LINE
  5
D5
330
40A
100
AcDbEntity
  8
0
  6
CONTINUOUS
 62
     7
100
AcDbLine
 10
65.6815971807
 20
299.9885960021
 30
0.0
 11
64.3415971807
 21
296.0068665702
 31
0.0
  0
LINE
  5
D6
330
40A
100
AcDbEntity
  8
0
  6
CONTINUOUS
 62
     7
100
AcDbLine
 10
64.3415971807
 20
296.0068665702
 30
0.0
 11
63.5792081401
 21
296.0068665702
 31
0.0
  0
LINE
  5
D7
330
40A
100
AcDbEntity
  8
0
  6
CONTINUOUS
 62
     7
100
AcDbLine
 10
63.5792081401
 20
328.0068665702
 30
0.0
 11
63.5792081401
 21
296.0068665702
 31
0.0
  0
LINE
  5
D8
330
40A
100
AcDbEntity
  8
0
  6
CONTINUOUS
 62
     7
100
AcDbLine
 10
64.3415971807
 20
328.0068665702
 30
0.0
 11
63.5792081401
 21
328.0068665702
 31
0.0
  0
LINE
  5
D9
330
40A
100
AcDbEntity
  8
0
  6
CONTINUOUS
 62
     7
100
AcDbLine
 10
65.6815971807
 20
324.0251371383
 30
0.0
 11
64.3415971807
 21
328.0068665702
 31
0.0
  0
LINE
  5
DA
330
40A
100
AcDbEntity
  8
0
  6
CONTINUOUS
 62
     7
100
AcDbLine
 10
70.3466508865
 20
318.7568665702
 30
0.0
 11
70.3466508865
 21
314.1068665702
 31
0.0
  0
LINE
  5
DB
330
40A
100
AcDbEntity
  8
0
  6
CONTINUOUS
 62
     7
100
AcDbLine
 10
70.3466508865
 20
318.7568665702
 30
0.0
 11
67.3768024055
 21
318.7568665702
 31
0.0
  0
LINE
  5
DC
330
40A
100
AcDbEntity
  8
0
  6
CONTINUOUS
 62
     7
100
AcDbLine
 10
67.3768024055
 20
318.7568665702
 30
0.0
 11
67.3768024055
 21
314.1068665702
 31
0.0
  0
LINE
  5
DD
330
40A
100
AcDbEntity
  8
0
  6
CONTINUOUS
 62
     7
100
AcDbLine
 10
67.3768024055
 20
314.1068665702
 30
0.0
 11
64.0348590803
 21
314.1068665702
 31
0.0
  0
LINE
  5
DE
330
40A
100
AcDbEntity
  8
0
  6
CONTINUOUS
 62
     7
100
AcDbLine
 10
64.0348590803
 20
314.1068665702
 30
0.0
 11
64.0348590803
 21
309.9068665702
 31
0.0
  0
LINE
  5
DF
330
40A
100
AcDbEntity
  8
0
  6
CONTINUOUS
 62
     7
100
AcDbLine
 10
67.3768024055
 20
309.9068665702
 30
0.0
 11
64.0348590803
 21
309.9068665702
 31
0.0
  0
LINE
  5
E0
330
40A
100
AcDbEntity
  8
0
  6
CONTINUOUS
 62
     7
100
AcDbLine
 10
67.3768024055
 20
309.9068665702
 30
0.0
 11
67.3768024055
 21
305.2568665702
 31
0.0
  0
LINE
  5
E1
330
40A
100
AcDbEntity
  8
0
  6
CONTINUOUS
 62
     7
100
AcDbLine
 10
70.3466508865
 20
305.2568665702
 30
0.0
 11
67.3768024055
 21
305.2568665702
 31
0.0
  0
LINE
  5
E2
330
40A
100
AcDbEntity
  8
0
  6
CONTINUOUS
 62
     7
100
AcDbLine
 10
70.3466508865
 20
309.9068665702
 30
0.0
 11
70.3466508865
 21
305.2568665702
 31
0.0
  0
LINE
  5
E3
330
40A
100
AcDbEntity
  8
0
  6
CONTINUOUS
 62
     7
100
AcDbLine
 10
70.7842176343
 20
314.1068665702
 30
0.0
 11
70.3466508865
 21
314.1068665702
 31
0.0
  0
LINE
  5
E4
330
40A
100
AcDbEntity
  8
0
  6
CONTINUOUS
 62
     7
100
AcDbLine
 10
70.7842176343
 20
309.9068665702
 30
0.0
 11
70.3466508865
 21
309.9068665702
 31
0.0
  0
LINE
  5
E5
330
40A
100
AcDbEntity
  8
0
  6
CONTINUOUS
 62
     7
100
AcDbLine
 10
70.7842176343
 20
299.9885960021
 30
0.0
 11
65.6815971807
 21
299.9885960021
 31
0.0
  0
LINE
  5
E6
330
40A
100
AcDbEntity
  8
0
  6
CONTINUOUS
 62
     7
100
AcDbLine
 10
70.7842176343
 20
324.0251371383
 30
0.0
 11
65.6815971807
 21
324.0251371383
 31
0.0
  0
CIRCLE
  5
E7
330
40A
100
AcDbEntity
  8
0
  6
CONTINUOUS
 62
     7
100
AcDbCircle
 10
134.4382176343
 20
290.7068665702
 30
0.0
 40
3.0
  0
LINE
  5
E8
330
40A
100
AcDbEntity
  8
0
  6
CONTINUOUS
 62
     7
100
AcDbLine
 10
68.7910159679
 20
309.9068665702
 30
0.0
 11
67.3768024055
 21
309.9068665702
 31
0.0
  0
LINE
  5
E9
330
40A
100
AcDbEntity
  8
0
  6
CONTINUOUS
 62
     7
100
AcDbLine
 10
68.7910159679
 20
314.1068665702
 30
0.0
 11
67.3768024055
 21
314.1068665702
 31
0.0
  0
LINE
  5
EA
330
40A
100
AcDbEntity
  8
0
  6
CONTINUOUS
 62
     7
100
AcDbLine
 10
64.8382176343
 20
275.7068665702
 30
0.0
 11
65.4240040719
 21
275.7068665702
 31
0.0
  0
LINE
  5
EB
330
40A
100
AcDbEntity
  8
0
  6
CONTINUOUS
 62
     7
100
AcDbLine
 10
64.8382176343
 20
279.7068665702
 30
0.0
 11
65.4240040719
 21
279.7068665702
 31
0.0
  0
LINE
  5
EC
330
40A
100
AcDbEntity
  8
0
  6
CONTINUOUS
 62
     7
100
AcDbLine
 10
64.3415971807
 20
296.0068665702
 30
0.0
 11
74.4382176343
 21
296.0068665702
 31
0.0
  0
LINE
  5
ED
330
40A
100
AcDbEntity
  8
0
  6
CONTINUOUS
 62
     7
100
AcDbLine
 10
64.3415971807
 20
328.0068665702
 30
0.0
 11
74.4382176343
 21
328.0068665702
 31
0.0
  0
LINE
  5
EE
330
40A
100
AcDbEntity
  8
0
  6
CONTINUOUS
 62
     7
100
AcDbLine
 10
63.5792081401
 20
328.0068665702
 30
0.0
 11
63.4382176343
 21
328.0068665702
 31
0.0
  0
LINE
  5
EF
330
40A
100
AcDbEntity
  8
0
  6
CONTINUOUS
 62
     7
100
AcDbLine
 10
63.5792081401
 20
296.0068665702
 30
0.0
 11
63.4382176343
 21
296.0068665702
 31
0.0
  0
LINE
  5
F0
330
40A
100
AcDbEntity
  8
0
  6
CONTINUOUS
 62
     7
100
AcDbLine
 10
74.4382176343
 20
251.4068665702
 30
0.0
 11
54.7382176343
 21
251.4068665702
 31
0.0
  0
LINE
  5
F1
330
40A
100
AcDbEntity
  8
0
  6
CONTINUOUS
 62
     7
100
AcDbLine
 10
54.7382176343
 20
222.0068665702
 30
0.0
 11
74.4382176343
 21
222.0068665702
 31
0.0
  0
INSERT
  5
1F0
330
40A
100
AcDbEntity
  8
0
  6
CONTINUOUS
 62
     7
100
AcDbBlockReference
  2
SW_CENTERMARKSYMBOL_0
 10
134.4382176343
 20
290.7068665702
 30
0.0
  0
INSERT
  5
1FC
330
40A
100
AcDbEntity
  8
0
  6
CONTINUOUS
 62
     7
100
AcDbBlockReference
  2
SW_CENTERMARKSYMBOL_1
 10
153.4382176343
 20
290.7068665702
 30
0.0
  0
INSERT
  5
208
330
40A
100
AcDbEntity
  8
0
  6
CONTINUOUS
 62
     7
100
AcDbBlockReference
  2
SW_CENTERMARKSYMBOL_2
 10
115.4382176343
 20
290.7068665702
 30
0.0
  0
INSERT
  5
214
330
40A
100
AcDbEntity
  8
0
  6
CONTINUOUS
 62
     7
100
AcDbBlockReference
  2
SW_CENTERMARKSYMBOL_3
 10
134.4382176343
 20
269.2068665702
 30
0.0
  0
INSERT
  5
220
330
40A
100
AcDbEntity
  8
0
  6
CONTINUOUS
 62
     7
100
AcDbBlockReference
  2
SW_CENTERMARKSYMBOL_4
 10
153.4382176343
 20
205.2068665702
 30
0.0
  0
INSERT
  5
22C
330
40A
100
AcDbEntity
  8
0
  6
CONTINUOUS
 62
     7
100
AcDbBlockReference
  2
SW_CENTERMARKSYMBOL_5
 10
115.4382176343
 20
205.2068665702
 30
0.0
  0
INSERT
  5
238
330
40A
100
AcDbEntity
  8
0
  6
CONTINUOUS
 62
     7
100
AcDbBlockReference
  2
SW_CENTERMARKSYMBOL_6
 10
134.4382176343
 20
212.7068665702
 30
0.0
  0
LINE
  5
239
330
40A
100
AcDbEntity
  8
0
  6
CENTERX2
 62
     7
100
AcDbLine
 10
61.5792081401
 20
312.0068665702
 30
0.0
 11
79.4382176343
 21
312.0068665702
 31
0.0
  0
LINE
  5
23A
330
40A
100
AcDbEntity
  8
0
  6
CENTERX2
 62
     7
100
AcDbLine
 10
73.4240040719
 20
277.7068665702
 30
0.0
 11
63.4240040719
 21
277.7068665702
 31
0.0
  0
LINE
  5
23B
330
40A
100
AcDbEntity
  8
0
  6
CENTERX2
 62
     7
100
AcDbLine
 10
79.1382176343
 20
236.7068665702
 30
0.0
 11
52.7382176343
 21
236.7068665702
 31
0.0
  0
LINE
  5
23C
330
40A
100
AcDbEntity
  8
0
  6
CONTINUOUS
 62
     7
100
AcDbLine
 10
242.8980970029
 20
156.7068665702
 30
0.0
 11
242.8980970029
 21
368.7068665702
 31
0.0
  0
ARC
  5
23D
330
40A
100
AcDbEntity
  8
0
  6
CONTINUOUS
 62
     7
100
AcDbCircle
 10
233.8980970029
 20
156.7068665702
 30
0.0
 40
9.0
100
AcDbArc
 50
180.0
 51
0.0
  0
LINE
  5
23E
330
40A
100
AcDbEntity
  8
0
  6
CONTINUOUS
 62
     7
100
AcDbLine
 10
224.8980970029
 20
368.7068665702
 30
0.0
 11
224.8980970029
 21
156.7068665702
 31
0.0
  0
ARC
  5
23F
330
40A
100
AcDbEntity
  8
0
  6
CONTINUOUS
 62
     7
100
AcDbCircle
 10
237.6480970029
 20
221.9568665702
 30
0.0
 40
0.2999999999999829
100
AcDbArc
 50
270.0
 51
0.0
  0
LINE
  5
240
330
40A
100
AcDbEntity
  8
0
  6
CONTINUOUS
 62
     7
100
AcDbLine
 10
237.9480970029
 20
221.9568665702
 30
0.0
 11
237.9480970029
 21
251.4568665702
 31
0.0
  0
ARC
  5
241
330
40A
100
AcDbEntity
  8
0
  6
CONTINUOUS
 62
     7
100
AcDbCircle
 10
237.6480970029
 20
251.4568665702
 30
0.0
 40
0.3000000000000114
100
AcDbArc
 50
0.0
 51
90.0
  0
LINE
  5
242
330
40A
100
AcDbEntity
  8
0
  6
CONTINUOUS
 62
     7
100
AcDbLine
 10
237.6480970029
 20
251.7568665702
 30
0.0
 11
230.1480970029
 21
251.7568665702
 31
0.0
  0
ARC
  5
243
330
40A
100
AcDbEntity
  8
0
  6
CONTINUOUS
 62
     7
100
AcDbCircle
 10
230.1480970029
 20
251.4568665702
 30
0.0
 40
0.2999999999999829
100
AcDbArc
 50
90.0
 51
180.0
  0
LINE
  5
244
330
40A
100
AcDbEntity
  8
0
  6
CONTINUOUS
 62
     7
100
AcDbLine
 10
229.8480970029
 20
251.4568665702
 30
0.0
 11
229.8480970029
 21
221.9568665702
 31
0.0
  0
ARC
  5
245
330
40A
100
AcDbEntity
  8
0
  6
CONTINUOUS
 62
     7
100
AcDbCircle
 10
230.1480970029
 20
221.9568665702
 30
0.0
 40
0.2999999999999829
100
AcDbArc
 50
180.0
 51
270.0
  0
LINE
  5
246
330
40A
100
AcDbEntity
  8
0
  6
CONTINUOUS
 62
     7
100
AcDbLine
 10
230.1480970029
 20
221.6568665702
 30
0.0
 11
237.6480970029
 21
221.6568665702
 31
0.0
  0
ARC
  5
247
330
40A
100
AcDbEntity
  8
0
  6
CONTINUOUS
 62
     7
100
AcDbCircle
 10
238.9480970029
 20
275.9568665702
 30
0.0
 40
0.3000000000000114
100
AcDbArc
 50
270.0
 51
0.0
  0
LINE
  5
248
330
40A
100
AcDbEntity
  8
0
  6
CONTINUOUS
 62
     7
100
AcDbLine
 10
239.2480970029
 20
275.9568665702
 30
0.0
 11
239.2480970029
 21
279.4568665702
 31
0.0
  0
ARC
  5
249
330
40A
100
AcDbEntity
  8
0
  6
CONTINUOUS
 62
     7
100
AcDbCircle
 10
238.9480970029
 20
279.4568665702
 30
0.0
 40
0.3000000000000114
100
AcDbArc
 50
0.0
 51
90.0
  0
LINE
  5
24A
330
40A
100
AcDbEntity
  8
0
  6
CONTINUOUS
 62
     7
100
AcDbLine
 10
238.9480970029
 20
279.7568665702
 30
0.0
 11
228.8480970029
 21
279.7568665702
 31
0.0
  0
ARC
  5
24B
330
40A
100
AcDbEntity
  8
0
  6
CONTINUOUS
 62
     7
100
AcDbCircle
 10
228.8480970029
 20
279.4568665702
 30
0.0
 40
0.3000000000000114
100
AcDbArc
 50
90.0
 51
180.0
  0
LINE
  5
24C
330
40A
100
AcDbEntity
  8
0
  6
CONTINUOUS
 62
     7
100
AcDbLine
 10
228.5480970029
 20
279.4568665702
 30
0.0
 11
228.5480970029
 21
275.9568665702
 31
0.0
  0
ARC
  5
24D
330
40A
100
AcDbEntity
  8
0
  6
CONTINUOUS
 62
     7
100
AcDbCircle
 10
228.8480970029
 20
275.9568665702
 30
0.0
 40
0.3000000000000114
100
AcDbArc
 50
180.0
 51
270.0
  0
LINE
  5
24E
330
40A
100
AcDbEntity
  8
0
  6
CONTINUOUS
 62
     7
100
AcDbLine
 10
228.8480970029
 20
275.6568665702
 30
0.0
 11
238.9480970029
 21
275.6568665702
 31
0.0
  0
ARC
  5
24F
330
40A
100
AcDbEntity
  8
0
  6
CONTINUOUS
 62
     7
100
AcDbCircle
 10
230.7380970029
 20
296.2068665702
 30
0.0
 40
0.3000000000000114
100
AcDbArc
 50
270.0
 51
341.3999999999999
  0
LINE
  5
250
330
40A
100
AcDbEntity
  8
0
  6
CONTINUOUS
 62
     7
100
AcDbLine
 10
231.0224275259
 20
296.1111787774
 30
0.0
 11
231.6804140678
 21
298.0663462248
 31
0.0
  0
ARC
  5
251
330
40A
100
AcDbEntity
  8
0
  6
CONTINUOUS
 62
     7
100
AcDbCircle
 10
232.1542982728
 20
297.9068665702
 30
0.0
 40
0.5
100
AcDbArc
 50
90.0
 51
161.4
  0
LINE
  5
252
330
40A
100
AcDbEntity
  8
0
  6
CONTINUOUS
 62
     7
100
AcDbLine
 10
232.1542982728
 20
298.4068665702
 30
0.0
 11
235.641895733
 21
298.4068665702
 31
0.0
  0
ARC
  5
253
330
40A
100
AcDbEntity
  8
0
  6
CONTINUOUS
 62
     7
100
AcDbCircle
 10
235.641895733
 20
297.9068665702
 30
0.0
 40
0.5000000000000568
100
AcDbArc
 50
18.6
 51
90.0
  0
LINE
  5
254
330
40A
100
AcDbEntity
  8
0
  6
CONTINUOUS
 62
     7
100
AcDbLine
 10
236.115779938
 20
298.0663462248
 30
0.0
 11
236.7737664799
 21
296.1111787774
 31
0.0
  0
ARC
  5
255
330
40A
100
AcDbEntity
  8
0
  6
CONTINUOUS
 62
     7
100
AcDbCircle
 10
237.0580970029
 20
296.2068665702
 30
0.0
 40
0.2999999999999711
100
AcDbArc
 50
198.6
 51
270.0
  0
LINE
  5
256
330
40A
100
AcDbEntity
  8
0
  6
CONTINUOUS
 62
     7
100
AcDbLine
 10
237.0580970029
 20
295.9068665702
 30
0.0
 11
239.6980970029
 21
295.9068665702
 31
0.0
  0
ARC
  5
257
330
40A
100
AcDbEntity
  8
0
  6
CONTINUOUS
 62
     7
100
AcDbCircle
 10
239.6980970029
 20
296.2068665702
 30
0.0
 40
0.3000000000000114
100
AcDbArc
 50
270.0
 51
0.0
  0
LINE
  5
258
330
40A
100
AcDbEntity
  8
0
  6
CONTINUOUS
 62
     7
100
AcDbLine
 10
239.9980970029
 20
296.2068665702
 30
0.0
 11
239.9980970029
 21
327.6068665702
 31
0.0
  0
ARC
  5
259
330
40A
100
AcDbEntity
  8
0
  6
CONTINUOUS
 62
     7
100
AcDbCircle
 10
239.6980970029
 20
327.6068665702
 30
0.0
 40
0.3000000000000114
100
AcDbArc
 50
0.0
 51
90.0
  0
LINE
  5
25A
330
40A
100
AcDbEntity
  8
0
  6
CONTINUOUS
 62
     7
100
AcDbLine
 10
239.6980970029
 20
327.9068665702
 30
0.0
 11
237.0580970029
 21
327.9068665702
 31
0.0
  0
ARC
  5
25B
330
40A
100
AcDbEntity
  8
0
  6
CONTINUOUS
 62
     7
100
AcDbCircle
 10
237.0580970029
 20
327.6068665702
 30
0.0
 40
0.3000000000000161
100
AcDbArc
 50
90.0
 51
161.4
  0
LINE
  5
25C
330
40A
100
AcDbEntity
  8
0
  6
CONTINUOUS
 62
     7
100
AcDbLine
 10
236.7737664799
 20
327.702554363
 30
0.0
 11
236.115779938
 21
325.7473869155
 31
0.0
  0
ARC
  5
25D
330
40A
100
AcDbEntity
  8
0
  6
CONTINUOUS
 62
     7
100
AcDbCircle
 10
235.641895733
 20
325.9068665702
 30
0.0
 40
0.5
100
AcDbArc
 50
270.0
 51
341.3999999999999
  0
LINE
  5
25E
330
40A
100
AcDbEntity
  8
0
  6
CONTINUOUS
 62
     7
100
AcDbLine
 10
235.641895733
 20
325.4068665702
 30
0.0
 11
232.1542982728
 21
325.4068665702
 31
0.0
  0
ARC
  5
25F
330
40A
100
AcDbEntity
  8
0
  6
CONTINUOUS
 62
     7
100
AcDbCircle
 10
232.1542982728
 20
325.9068665702
 30
0.0
 40
0.5
100
AcDbArc
 50
198.6
 51
270.0
  0
LINE
  5
260
330
40A
100
AcDbEntity
  8
0
  6
CONTINUOUS
 62
     7
100
AcDbLine
 10
231.6804140678
 20
325.7473869155
 30
0.0
 11
231.0224275259
 21
327.702554363
 31
0.0
  0
ARC
  5
261
330
40A
100
AcDbEntity
  8
0
  6
CONTINUOUS
 62
     7
100
AcDbCircle
 10
230.7380970029
 20
327.6068665702
 30
0.0
 40
0.3000000000000682
100
AcDbArc
 50
18.6
 51
90.0
  0
LINE
  5
262
330
40A
100
AcDbEntity
  8
0
  6
CONTINUOUS
 62
     7
100
AcDbLine
 10
230.7380970029
 20
327.9068665702
 30
0.0
 11
230.591750721
 21
327.9068665702
 31
0.0
  0
ARC
  5
263
330
40A
100
AcDbEntity
  8
0
  6
CONTINUOUS
 62
     7
100
AcDbCircle
 10
228.0980970029
 20
327.6068665702
 30
0.0
 40
0.2999999999999949
100
AcDbArc
 50
131.8103148958
 51
180.0
  0
LINE
  5
264
330
40A
100
AcDbEntity
  8
0
  6
CONTINUOUS
 62
     7
100
AcDbLine
 10
227.7980970029
 20
327.6068665702
 30
0.0
 11
227.7980970029
 21
296.2068665702
 31
0.0
  0
ARC
  5
265
330
40A
100
AcDbEntity
  8
0
  6
CONTINUOUS
 62
     7
100
AcDbCircle
 10
228.0980970029
 20
296.2068665702
 30
0.0
 40
0.2999999999999829
100
AcDbArc
 50
180.0
 51
270.0
  0
LINE
  5
266
330
40A
100
AcDbEntity
  8
0
  6
CONTINUOUS
 62
     7
100
AcDbLine
 10
228.0980970029
 20
295.9068665702
 30
0.0
 11
230.7380970029
 21
295.9068665702
 31
0.0
  0
CIRCLE
  5
267
330
40A
100
AcDbEntity
  8
0
  6
CONTINUOUS
 62
     7
100
AcDbCircle
 10
233.8980970029
 20
156.7068665702
 30
0.0
 40
5.0
  0
CIRCLE
  5
268
330
40A
100
AcDbEntity
  8
0
  6
CONTINUOUS
 62
     7
100
AcDbCircle
 10
233.8980970029
 20
368.7068665702
 30
0.0
 40
5.0
  0
CIRCLE
  5
269
330
40A
100
AcDbEntity
  8
0
  6
CONTINUOUS
 62
     7
100
AcDbCircle
 10
233.8980970029
 20
194.2068665702
 30
0.0
 40
5.0
  0
CIRCLE
  5
26A
330
40A
100
AcDbEntity
  8
0
  6
CONTINUOUS
 62
     7
100
AcDbCircle
 10
233.8980970029
 20
338.9068665702
 30
0.0
 40
4.0
  0
CIRCLE
  5
26B
330
40A
100
AcDbEntity
  8
0
  6
CONTINUOUS
 62
     7
100
AcDbCircle
 10
233.8980970029
 20
210.7068665702
 30
0.0
 40
4.0
  0
CIRCLE
  5
26C
330
40A
100
AcDbEntity
  8
0
  6
CONTINUOUS
 62
     7
100
AcDbCircle
 10
233.8980970029
 20
262.7068665702
 30
0.0
 40
4.0
  0
ARC
  5
26D
330
40A
100
AcDbEntity
  8
0
  6
CONTINUOUS
 62
     7
100
AcDbCircle
 10
233.8980970029
 20
368.7068665702
 30
0.0
 40
9.000000000000028
100
AcDbArc
 50
0.0
 51
180.0
  0
CIRCLE
  5
26E
330
40A
100
AcDbEntity
  8
0
  6
CONTINUOUS
 62
     7
100
AcDbCircle
 10
233.8980970029
 20
368.7068665702
 30
0.0
 40
2.749999999999943
  0
CIRCLE
  5
26F
330
40A
100
AcDbEntity
  8
0
  6
CONTINUOUS
 62
     7
100
AcDbCircle
 10
233.8980970029
 20
194.2068665702
 30
0.0
 40
2.75
  0
CIRCLE
  5
270
330
40A
100
AcDbEntity
  8
0
  6
CONTINUOUS
 62
     7
100
AcDbCircle
 10
233.8980970029
 20
156.7068665702
 30
0.0
 40
2.75
  0
LINE
  5
271
330
40A
100
AcDbEntity
  8
0
  6
CONTINUOUS
 62
     7
100
AcDbLine
 10
234.3480970029
 20
212.7068665702
 30
0.0
 11
233.4480970029
 21
212.7068665702
 31
0.0
  0
LINE
  5
272
330
40A
100
AcDbEntity
  8
0
  6
CONTINUOUS
 62
     7
100
AcDbLine
 10
233.4480970029
 20
211.4268665702
 30
0.0
 11
233.4480970029
 21
212.7068665702
 31
0.0
  0
LINE
  5
273
330
40A
100
AcDbEntity
  8
0
  6
CONTINUOUS
 62
     7
100
AcDbLine
 10
233.1780970029
 20
211.1568665702
 30
0.0
 11
233.4480970029
 21
211.4268665702
 31
0.0
  0
LINE
  5
274
330
40A
100
AcDbEntity
  8
0
  6
CONTINUOUS
 62
     7
100
AcDbLine
 10
233.1780970029
 20
211.1568665702
 30
0.0
 11
231.8980970029
 21
211.1568665702
 31
0.0
  0
LINE
  5
275
330
40A
100
AcDbEntity
  8
0
  6
CONTINUOUS
 62
     7
100
AcDbLine
 10
231.8980970029
 20
211.1568665702
 30
0.0
 11
231.8980970029
 21
210.2568665702
 31
0.0
  0
LINE
  5
276
330
40A
100
AcDbEntity
  8
0
  6
CONTINUOUS
 62
     7
100
AcDbLine
 10
233.1780970029
 20
210.2568665702
 30
0.0
 11
231.8980970029
 21
210.2568665702
 31
0.0
  0
LINE
  5
277
330
40A
100
AcDbEntity
  8
0
  6
CONTINUOUS
 62
     7
100
AcDbLine
 10
233.4480970029
 20
209.9868665702
 30
0.0
 11
233.1780970029
 21
210.2568665702
 31
0.0
  0
LINE
  5
278
330
40A
100
AcDbEntity
  8
0
  6
CONTINUOUS
 62
     7
100
AcDbLine
 10
233.4480970029
 20
208.7068665702
 30
0.0
 11
233.4480970029
 21
209.9868665702
 31
0.0
  0
LINE
  5
279
330
40A
100
AcDbEntity
  8
0
  6
CONTINUOUS
 62
     7
100
AcDbLine
 10
234.3480970029
 20
208.7068665702
 30
0.0
 11
233.4480970029
 21
208.7068665702
 31
0.0
  0
LINE
  5
27A
330
40A
100
AcDbEntity
  8
0
  6
CONTINUOUS
 62
     7
100
AcDbLine
 10
234.3480970029
 20
208.7068665702
 30
0.0
 11
234.3480970029
 21
209.9868665702
 31
0.0
  0
LINE
  5
27B
330
40A
100
AcDbEntity
  8
0
  6
CONTINUOUS
 62
     7
100
AcDbLine
 10
234.6180970029
 20
210.2568665702
 30
0.0
 11
234.3480970029
 21
209.9868665702
 31
0.0
  0
LINE
  5
27C
330
40A
100
AcDbEntity
  8
0
  6
CONTINUOUS
 62
     7
100
AcDbLine
 10
235.8980970029
 20
210.2568665702
 30
0.0
 11
234.6180970029
 21
210.2568665702
 31
0.0
  0
LINE
  5
27D
330
40A
100
AcDbEntity
  8
0
  6
CONTINUOUS
 62
     7
100
AcDbLine
 10
235.8980970029
 20
211.1568665702
 30
0.0
 11
235.8980970029
 21
210.2568665702
 31
0.0
  0
LINE
  5
27E
330
40A
100
AcDbEntity
  8
0
  6
CONTINUOUS
 62
     7
100
AcDbLine
 10
235.8980970029
 20
211.1568665702
 30
0.0
 11
234.6180970029
 21
211.1568665702
 31
0.0
  0
LINE
  5
27F
330
40A
100
AcDbEntity
  8
0
  6
CONTINUOUS
 62
     7
100
AcDbLine
 10
234.3480970029
 20
211.4268665702
 30
0.0
 11
234.6180970029
 21
211.1568665702
 31
0.0
  0
LINE
  5
280
330
40A
100
AcDbEntity
  8
0
  6
CONTINUOUS
 62
     7
100
AcDbLine
 10
234.3480970029
 20
211.4268665702
 30
0.0
 11
234.3480970029
 21
212.7068665702
 31
0.0
  0
CIRCLE
  5
281
330
40A
100
AcDbEntity
  8
0
  6
CONTINUOUS
 62
     7
100
AcDbCircle
 10
233.8980970029
 20
210.7068665702
 30
0.0
 40
3.75
  0
LINE
  5
282
330
40A
100
AcDbEntity
  8
0
  6
CONTINUOUS
 62
     7
100
AcDbLine
 10
233.4480970029
 20
210.2568665702
 30
0.0
 11
233.3130970029
 21
210.1218665702
 31
0.0
  0
LINE
  5
283
330
40A
100
AcDbEntity
  8
0
  6
CONTINUOUS
 62
     7
100
AcDbLine
 10
233.4480970029
 20
211.1568665702
 30
0.0
 11
233.3130970029
 21
211.2918665702
 31
0.0
  0
LINE
  5
284
330
40A
100
AcDbEntity
  8
0
  6
CONTINUOUS
 62
     7
100
AcDbLine
 10
233.4480970029
 20
210.2568665702
 30
0.0
 11
233.4480970029
 21
211.1568665702
 31
0.0
  0
LINE
  5
285
330
40A
100
AcDbEntity
  8
0
  6
CONTINUOUS
 62
     7
100
AcDbLine
 10
234.3480970029
 20
211.1568665702
 30
0.0
 11
234.4830970029
 21
211.2918665702
 31
0.0
  0
LINE
  5
286
330
40A
100
AcDbEntity
  8
0
  6
CONTINUOUS
 62
     7
100
AcDbLine
 10
233.4480970029
 20
211.1568665702
 30
0.0
 11
234.3480970029
 21
211.1568665702
 31
0.0
  0
LINE
  5
287
330
40A
100
AcDbEntity
  8
0
  6
CONTINUOUS
 62
     7
100
AcDbLine
 10
234.3480970029
 20
210.2568665702
 30
0.0
 11
234.4830970029
 21
210.1218665702
 31
0.0
  0
LINE
  5
288
330
40A
100
AcDbEntity
  8
0
  6
CONTINUOUS
 62
     7
100
AcDbLine
 10
233.4480970029
 20
210.2568665702
 30
0.0
 11
234.3480970029
 21
210.2568665702
 31
0.0
  0
LINE
  5
289
330
40A
100
AcDbEntity
  8
0
  6
CONTINUOUS
 62
     7
100
AcDbLine
 10
234.3480970029
 20
210.2568665702
 30
0.0
 11
234.3480970029
 21
211.1568665702
 31
0.0
  0
LINE
  5
28A
330
40A
100
AcDbEntity
  8
0
  6
CONTINUOUS
 62
     7
100
AcDbLine
 10
234.1805837428
 20
210.4243798303
 30
0.0
 11
234.3480970029
 21
210.2568665702
 31
0.0
  0
LINE
  5
28B
330
40A
100
AcDbEntity
  8
0
  6
CONTINUOUS
 62
     7
100
AcDbLine
 10
234.3480970029
 20
210.4243798303
 30
0.0
 11
234.1805837428
 21
210.4243798303
 31
0.0
  0
LINE
  5
28C
330
40A
100
AcDbEntity
  8
0
  6
CONTINUOUS
 62
     7
100
AcDbLine
 10
233.615610263
 20
210.4243798303
 30
0.0
 11
233.4480970029
 21
210.4243798303
 31
0.0
  0
LINE
  5
28D
330
40A
100
AcDbEntity
  8
0
  6
CONTINUOUS
 62
     7
100
AcDbLine
 10
233.4480970029
 20
210.2568665702
 30
0.0
 11
233.615610263
 21
210.4243798303
 31
0.0
  0
LINE
  5
28E
330
40A
100
AcDbEntity
  8
0
  6
CONTINUOUS
 62
     7
100
AcDbLine
 10
234.1805837428
 20
210.4243798303
 30
0.0
 11
234.1805837428
 21
210.2568665702
 31
0.0
  0
LINE
  5
28F
330
40A
100
AcDbEntity
  8
0
  6
CONTINUOUS
 62
     7
100
AcDbLine
 10
233.615610263
 20
210.4243798303
 30
0.0
 11
233.615610263
 21
210.2568665702
 31
0.0
  0
LINE
  5
290
330
40A
100
AcDbEntity
  8
0
  6
CONTINUOUS
 62
     7
100
AcDbLine
 10
234.3480970029
 20
211.1568665702
 30
0.0
 11
234.1805837428
 21
210.9893533101
 31
0.0
  0
LINE
  5
291
330
40A
100
AcDbEntity
  8
0
  6
CONTINUOUS
 62
     7
100
AcDbLine
 10
234.1805837428
 20
211.1568665702
 30
0.0
 11
234.1805837428
 21
210.9893533101
 31
0.0
  0
LINE
  5
292
330
40A
100
AcDbEntity
  8
0
  6
CONTINUOUS
 62
     7
100
AcDbLine
 10
233.615610263
 20
210.9893533101
 30
0.0
 11
233.4480970029
 21
211.1568665702
 31
0.0
  0
LINE
  5
293
330
40A
100
AcDbEntity
  8
0
  6
CONTINUOUS
 62
     7
100
AcDbLine
 10
233.615610263
 20
211.1568665702
 30
0.0
 11
233.615610263
 21
210.9893533101
 31
0.0
  0
LINE
  5
294
330
40A
100
AcDbEntity
  8
0
  6
CONTINUOUS
 62
     7
100
AcDbLine
 10
233.615610263
 20
210.9893533101
 30
0.0
 11
233.4480970029
 21
210.9893533101
 31
0.0
  0
LINE
  5
295
330
40A
100
AcDbEntity
  8
0
  6
CONTINUOUS
 62
     7
100
AcDbLine
 10
234.3480970029
 20
210.9893533101
 30
0.0
 11
234.1805837428
 21
210.9893533101
 31
0.0
  0
LINE
  5
296
330
40A
100
AcDbEntity
  8
0
  6
CONTINUOUS
 62
     7
100
AcDbLine
 10
233.8980970029
 20
210.7068665702
 30
0.0
 11
233.615610263
 21
210.9893533101
 31
0.0
  0
LINE
  5
297
330
40A
100
AcDbEntity
  8
0
  6
CONTINUOUS
 62
     7
100
AcDbLine
 10
233.615610263
 20
210.4243798303
 30
0.0
 11
233.8980970029
 21
210.7068665702
 31
0.0
  0
LINE
  5
298
330
40A
100
AcDbEntity
  8
0
  6
CONTINUOUS
 62
     7
100
AcDbLine
 10
234.1805837428
 20
210.9893533101
 30
0.0
 11
233.8980970029
 21
210.7068665702
 31
0.0
  0
LINE
  5
299
330
40A
100
AcDbEntity
  8
0
  6
CONTINUOUS
 62
     7
100
AcDbLine
 10
233.8980970029
 20
210.7068665702
 30
0.0
 11
234.1805837428
 21
210.4243798303
 31
0.0
  0
LINE
  5
29A
330
40A
100
AcDbEntity
  8
0
  6
CONTINUOUS
 62
     7
100
AcDbLine
 10
234.3480970029
 20
264.7068665702
 30
0.0
 11
233.4480970029
 21
264.7068665702
 31
0.0
  0
LINE
  5
29B
330
40A
100
AcDbEntity
  8
0
  6
CONTINUOUS
 62
     7
100
AcDbLine
 10
233.4480970029
 20
263.4268665702
 30
0.0
 11
233.4480970029
 21
264.7068665702
 31
0.0
  0
LINE
  5
29C
330
40A
100
AcDbEntity
  8
0
  6
CONTINUOUS
 62
     7
100
AcDbLine
 10
233.1780970029
 20
263.1568665702
 30
0.0
 11
233.4480970029
 21
263.4268665702
 31
0.0
  0
LINE
  5
29D
330
40A
100
AcDbEntity
  8
0
  6
CONTINUOUS
 62
     7
100
AcDbLine
 10
233.1780970029
 20
263.1568665702
 30
0.0
 11
231.8980970029
 21
263.1568665702
 31
0.0
  0
LINE
  5
29E
330
40A
100
AcDbEntity
  8
0
  6
CONTINUOUS
 62
     7
100
AcDbLine
 10
231.8980970029
 20
263.1568665702
 30
0.0
 11
231.8980970029
 21
262.2568665702
 31
0.0
  0
LINE
  5
29F
330
40A
100
AcDbEntity
  8
0
  6
CONTINUOUS
 62
     7
100
AcDbLine
 10
233.1780970029
 20
262.2568665702
 30
0.0
 11
231.8980970029
 21
262.2568665702
 31
0.0
  0
LINE
  5
2A0
330
40A
100
AcDbEntity
  8
0
  6
CONTINUOUS
 62
     7
100
AcDbLine
 10
233.4480970029
 20
261.9868665702
 30
0.0
 11
233.1780970029
 21
262.2568665702
 31
0.0
  0
LINE
  5
2A1
330
40A
100
AcDbEntity
  8
0
  6
CONTINUOUS
 62
     7
100
AcDbLine
 10
233.4480970029
 20
260.7068665702
 30
0.0
 11
233.4480970029
 21
261.9868665702
 31
0.0
  0
LINE
  5
2A2
330
40A
100
AcDbEntity
  8
0
  6
CONTINUOUS
 62
     7
100
AcDbLine
 10
234.3480970029
 20
260.7068665702
 30
0.0
 11
233.4480970029
 21
260.7068665702
 31
0.0
  0
LINE
  5
2A3
330
40A
100
AcDbEntity
  8
0
  6
CONTINUOUS
 62
     7
100
AcDbLine
 10
234.3480970029
 20
260.7068665702
 30
0.0
 11
234.3480970029
 21
261.9868665702
 31
0.0
  0
LINE
  5
2A4
330
40A
100
AcDbEntity
  8
0
  6
CONTINUOUS
 62
     7
100
AcDbLine
 10
234.6180970029
 20
262.2568665702
 30
0.0
 11
234.3480970029
 21
261.9868665702
 31
0.0
  0
LINE
  5
2A5
330
40A
100
AcDbEntity
  8
0
  6
CONTINUOUS
 62
     7
100
AcDbLine
 10
235.8980970029
 20
262.2568665702
 30
0.0
 11
234.6180970029
 21
262.2568665702
 31
0.0
  0
LINE
  5
2A6
330
40A
100
AcDbEntity
  8
0
  6
CONTINUOUS
 62
     7
100
AcDbLine
 10
235.8980970029
 20
263.1568665702
 30
0.0
 11
235.8980970029
 21
262.2568665702
 31
0.0
  0
LINE
  5
2A7
330
40A
100
AcDbEntity
  8
0
  6
CONTINUOUS
 62
     7
100
AcDbLine
 10
235.8980970029
 20
263.1568665702
 30
0.0
 11
234.6180970029
 21
263.1568665702
 31
0.0
  0
LINE
  5
2A8
330
40A
100
AcDbEntity
  8
0
  6
CONTINUOUS
 62
     7
100
AcDbLine
 10
234.3480970029
 20
263.4268665702
 30
0.0
 11
234.6180970029
 21
263.1568665702
 31
0.0
  0
LINE
  5
2A9
330
40A
100
AcDbEntity
  8
0
  6
CONTINUOUS
 62
     7
100
AcDbLine
 10
234.3480970029
 20
263.4268665702
 30
0.0
 11
234.3480970029
 21
264.7068665702
 31
0.0
  0
CIRCLE
  5
2AA
330
40A
100
AcDbEntity
  8
0
  6
CONTINUOUS
 62
     7
100
AcDbCircle
 10
233.8980970029
 20
262.7068665702
 30
0.0
 40
3.750000000000028
  0
LINE
  5
2AB
330
40A
100
AcDbEntity
  8
0
  6
CONTINUOUS
 62
     7
100
AcDbLine
 10
233.4480970029
 20
262.2568665702
 30
0.0
 11
233.3130970029
 21
262.1218665702
 31
0.0
  0
LINE
  5
2AC
330
40A
100
AcDbEntity
  8
0
  6
CONTINUOUS
 62
     7
100
AcDbLine
 10
233.4480970029
 20
263.1568665702
 30
0.0
 11
233.3130970029
 21
263.2918665702
 31
0.0
  0
LINE
  5
2AD
330
40A
100
AcDbEntity
  8
0
  6
CONTINUOUS
 62
     7
100
AcDbLine
 10
233.4480970029
 20
262.2568665702
 30
0.0
 11
233.4480970029
 21
263.1568665702
 31
0.0
  0
LINE
  5
2AE
330
40A
100
AcDbEntity
  8
0
  6
CONTINUOUS
 62
     7
100
AcDbLine
 10
234.3480970029
 20
263.1568665702
 30
0.0
 11
234.4830970029
 21
263.2918665702
 31
0.0
  0
LINE
  5
2AF
330
40A
100
AcDbEntity
  8
0
  6
CONTINUOUS
 62
     7
100
AcDbLine
 10
234.3480970029
 20
262.2568665702
 30
0.0
 11
234.4830970029
 21
262.1218665702
 31
0.0
  0
LINE
  5
2B0
330
40A
100
AcDbEntity
  8
0
  6
CONTINUOUS
 62
     7
100
AcDbLine
 10
234.3480970029
 20
262.2568665702
 30
0.0
 11
234.3480970029
 21
263.1568665702
 31
0.0
  0
LINE
  5
2B1
330
40A
100
AcDbEntity
  8
0
  6
CONTINUOUS
 62
     7
100
AcDbLine
 10
233.4480970029
 20
263.1568665702
 30
0.0
 11
234.3480970029
 21
263.1568665702
 31
0.0
  0
LINE
  5
2B2
330
40A
100
AcDbEntity
  8
0
  6
CONTINUOUS
 62
     7
100
AcDbLine
 10
233.4480970029
 20
262.2568665702
 30
0.0
 11
234.3480970029
 21
262.2568665702
 31
0.0
  0
LINE
  5
2B3
330
40A
100
AcDbEntity
  8
0
  6
CONTINUOUS
 62
     7
100
AcDbLine
 10
233.615610263
 20
262.4243798303
 30
0.0
 11
233.4480970029
 21
262.4243798303
 31
0.0
  0
LINE
  5
2B4
330
40A
100
AcDbEntity
  8
0
  6
CONTINUOUS
 62
     7
100
AcDbLine
 10
233.4480970029
 20
262.2568665702
 30
0.0
 11
233.615610263
 21
262.4243798303
 31
0.0
  0
LINE
  5
2B5
330
40A
100
AcDbEntity
  8
0
  6
CONTINUOUS
 62
     7
100
AcDbLine
 10
234.3480970029
 20
262.9893533101
 30
0.0
 11
234.1805837428
 21
262.9893533101
 31
0.0
  0
LINE
  5
2B6
330
40A
100
AcDbEntity
  8
0
  6
CONTINUOUS
 62
     7
100
AcDbLine
 10
234.3480970029
 20
263.1568665702
 30
0.0
 11
234.1805837428
 21
262.9893533101
 31
0.0
  0
LINE
  5
2B7
330
40A
100
AcDbEntity
  8
0
  6
CONTINUOUS
 62
     7
100
AcDbLine
 10
233.615610263
 20
262.4243798303
 30
0.0
 11
233.615610263
 21
262.2568665702
 31
0.0
  0
LINE
  5
2B8
330
40A
100
AcDbEntity
  8
0
  6
CONTINUOUS
 62
     7
100
AcDbLine
 10
234.1805837428
 20
263.1568665702
 30
0.0
 11
234.1805837428
 21
262.9893533101
 31
0.0
  0
LINE
  5
2B9
330
40A
100
AcDbEntity
  8
0
  6
CONTINUOUS
 62
     7
100
AcDbLine
 10
233.615610263
 20
262.9893533101
 30
0.0
 11
233.4480970029
 21
263.1568665702
 31
0.0
  0
LINE
  5
2BA
330
40A
100
AcDbEntity
  8
0
  6
CONTINUOUS
 62
     7
100
AcDbLine
 10
233.615610263
 20
263.1568665702
 30
0.0
 11
233.615610263
 21
262.9893533101
 31
0.0
  0
LINE
  5
2BB
330
40A
100
AcDbEntity
  8
0
  6
CONTINUOUS
 62
     7
100
AcDbLine
 10
234.1805837428
 20
262.4243798303
 30
0.0
 11
234.3480970029
 21
262.2568665702
 31
0.0
  0
LINE
  5
2BC
330
40A
100
AcDbEntity
  8
0
  6
CONTINUOUS
 62
     7
100
AcDbLine
 10
234.1805837428
 20
262.4243798303
 30
0.0
 11
234.1805837428
 21
262.2568665702
 31
0.0
  0
LINE
  5
2BD
330
40A
100
AcDbEntity
  8
0
  6
CONTINUOUS
 62
     7
100
AcDbLine
 10
233.615610263
 20
262.9893533101
 30
0.0
 11
233.4480970029
 21
262.9893533101
 31
0.0
  0
LINE
  5
2BE
330
40A
100
AcDbEntity
  8
0
  6
CONTINUOUS
 62
     7
100
AcDbLine
 10
234.3480970029
 20
262.4243798303
 30
0.0
 11
234.1805837428
 21
262.4243798303
 31
0.0
  0
LINE
  5
2BF
330
40A
100
AcDbEntity
  8
0
  6
CONTINUOUS
 62
     7
100
AcDbLine
 10
233.8980970029
 20
262.7068665702
 30
0.0
 11
234.1805837428
 21
262.4243798303
 31
0.0
  0
LINE
  5
2C0
330
40A
100
AcDbEntity
  8
0
  6
CONTINUOUS
 62
     7
100
AcDbLine
 10
234.1805837428
 20
262.9893533101
 30
0.0
 11
233.8980970029
 21
262.7068665702
 31
0.0
  0
LINE
  5
2C1
330
40A
100
AcDbEntity
  8
0
  6
CONTINUOUS
 62
     7
100
AcDbLine
 10
233.615610263
 20
262.4243798303
 30
0.0
 11
233.8980970029
 21
262.7068665702
 31
0.0
  0
LINE
  5
2C2
330
40A
100
AcDbEntity
  8
0
  6
CONTINUOUS
 62
     7
100
AcDbLine
 10
233.8980970029
 20
262.7068665702
 30
0.0
 11
233.615610263
 21
262.9893533101
 31
0.0
  0
LINE
  5
2C3
330
40A
100
AcDbEntity
  8
0
  6
CONTINUOUS
 62
     7
100
AcDbLine
 10
234.3480970029
 20
340.9068665702
 30
0.0
 11
233.4480970029
 21
340.9068665702
 31
0.0
  0
LINE
  5
2C4
330
40A
100
AcDbEntity
  8
0
  6
CONTINUOUS
 62
     7
100
AcDbLine
 10
233.4480970029
 20
339.6268665702
 30
0.0
 11
233.4480970029
 21
340.9068665702
 31
0.0
  0
LINE
  5
2C5
330
40A
100
AcDbEntity
  8
0
  6
CONTINUOUS
 62
     7
100
AcDbLine
 10
233.1780970029
 20
339.3568665702
 30
0.0
 11
233.4480970029
 21
339.6268665702
 31
0.0
  0
LINE
  5
2C6
330
40A
100
AcDbEntity
  8
0
  6
CONTINUOUS
 62
     7
100
AcDbLine
 10
233.1780970029
 20
339.3568665702
 30
0.0
 11
231.8980970029
 21
339.3568665702
 31
0.0
  0
LINE
  5
2C7
330
40A
100
AcDbEntity
  8
0
  6
CONTINUOUS
 62
     7
100
AcDbLine
 10
231.8980970029
 20
339.3568665702
 30
0.0
 11
231.8980970029
 21
338.4568665702
 31
0.0
  0
LINE
  5
2C8
330
40A
100
AcDbEntity
  8
0
  6
CONTINUOUS
 62
     7
100
AcDbLine
 10
233.1780970029
 20
338.4568665702
 30
0.0
 11
231.8980970029
 21
338.4568665702
 31
0.0
  0
LINE
  5
2C9
330
40A
100
AcDbEntity
  8
0
  6
CONTINUOUS
 62
     7
100
AcDbLine
 10
233.4480970029
 20
338.1868665702
 30
0.0
 11
233.1780970029
 21
338.4568665702
 31
0.0
  0
LINE
  5
2CA
330
40A
100
AcDbEntity
  8
0
  6
CONTINUOUS
 62
     7
100
AcDbLine
 10
233.4480970029
 20
336.9068665702
 30
0.0
 11
233.4480970029
 21
338.1868665702
 31
0.0
  0
LINE
  5
2CB
330
40A
100
AcDbEntity
  8
0
  6
CONTINUOUS
 62
     7
100
AcDbLine
 10
234.3480970029
 20
336.9068665702
 30
0.0
 11
233.4480970029
 21
336.9068665702
 31
0.0
  0
LINE
  5
2CC
330
40A
100
AcDbEntity
  8
0
  6
CONTINUOUS
 62
     7
100
AcDbLine
 10
234.3480970029
 20
336.9068665702
 30
0.0
 11
234.3480970029
 21
338.1868665702
 31
0.0
  0
LINE
  5
2CD
330
40A
100
AcDbEntity
  8
0
  6
CONTINUOUS
 62
     7
100
AcDbLine
 10
234.6180970029
 20
338.4568665702
 30
0.0
 11
234.3480970029
 21
338.1868665702
 31
0.0
  0
LINE
  5
2CE
330
40A
100
AcDbEntity
  8
0
  6
CONTINUOUS
 62
     7
100
AcDbLine
 10
235.8980970029
 20
338.4568665702
 30
0.0
 11
234.6180970029
 21
338.4568665702
 31
0.0
  0
LINE
  5
2CF
330
40A
100
AcDbEntity
  8
0
  6
CONTINUOUS
 62
     7
100
AcDbLine
 10
235.8980970029
 20
339.3568665702
 30
0.0
 11
235.8980970029
 21
338.4568665702
 31
0.0
  0
LINE
  5
2D0
330
40A
100
AcDbEntity
  8
0
  6
CONTINUOUS
 62
     7
100
AcDbLine
 10
235.8980970029
 20
339.3568665702
 30
0.0
 11
234.6180970029
 21
339.3568665702
 31
0.0
  0
LINE
  5
2D1
330
40A
100
AcDbEntity
  8
0
  6
CONTINUOUS
 62
     7
100
AcDbLine
 10
234.3480970029
 20
339.6268665702
 30
0.0
 11
234.6180970029
 21
339.3568665702
 31
0.0
  0
LINE
  5
2D2
330
40A
100
AcDbEntity
  8
0
  6
CONTINUOUS
 62
     7
100
AcDbLine
 10
234.3480970029
 20
339.6268665702
 30
0.0
 11
234.3480970029
 21
340.9068665702
 31
0.0
  0
CIRCLE
  5
2D3
330
40A
100
AcDbEntity
  8
0
  6
CONTINUOUS
 62
     7
100
AcDbCircle
 10
233.8980970029
 20
338.9068665702
 30
0.0
 40
3.750000000000028
  0
LINE
  5
2D4
330
40A
100
AcDbEntity
  8
0
  6
CONTINUOUS
 62
     7
100
AcDbLine
 10
234.3480970029
 20
339.3568665702
 30
0.0
 11
234.4830970029
 21
339.4918665702
 31
0.0
  0
LINE
  5
2D5
330
40A
100
AcDbEntity
  8
0
  6
CONTINUOUS
 62
     7
100
AcDbLine
 10
233.4480970029
 20
339.3568665702
 30
0.0
 11
234.3480970029
 21
339.3568665702
 31
0.0
  0
LINE
  5
2D6
330
40A
100
AcDbEntity
  8
0
  6
CONTINUOUS
 62
     7
100
AcDbLine
 10
233.4480970029
 20
339.3568665702
 30
0.0
 11
233.3130970029
 21
339.4918665702
 31
0.0
  0
LINE
  5
2D7
330
40A
100
AcDbEntity
  8
0
  6
CONTINUOUS
 62
     7
100
AcDbLine
 10
233.4480970029
 20
338.4568665702
 30
0.0
 11
233.3130970029
 21
338.3218665702
 31
0.0
  0
LINE
  5
2D8
330
40A
100
AcDbEntity
  8
0
  6
CONTINUOUS
 62
     7
100
AcDbLine
 10
233.4480970029
 20
338.4568665702
 30
0.0
 11
233.4480970029
 21
339.3568665702
 31
0.0
  0
LINE
  5
2D9
330
40A
100
AcDbEntity
  8
0
  6
CONTINUOUS
 62
     7
100
AcDbLine
 10
234.3480970029
 20
338.4568665702
 30
0.0
 11
234.4830970029
 21
338.3218665702
 31
0.0
  0
LINE
  5
2DA
330
40A
100
AcDbEntity
  8
0
  6
CONTINUOUS
 62
     7
100
AcDbLine
 10
234.3480970029
 20
338.4568665702
 30
0.0
 11
234.3480970029
 21
339.3568665702
 31
0.0
  0
LINE
  5
2DB
330
40A
100
AcDbEntity
  8
0
  6
CONTINUOUS
 62
     7
100
AcDbLine
 10
233.4480970029
 20
338.4568665702
 30
0.0
 11
234.3480970029
 21
338.4568665702
 31
0.0
  0
LINE
  5
2DC
330
40A
100
AcDbEntity
  8
0
  6
CONTINUOUS
 62
     7
100
AcDbLine
 10
234.3480970029
 20
339.3568665702
 30
0.0
 11
234.1805837428
 21
339.1893533101
 31
0.0
  0
LINE
  5
2DD
330
40A
100
AcDbEntity
  8
0
  6
CONTINUOUS
 62
     7
100
AcDbLine
 10
234.1805837428
 20
339.3568665702
 30
0.0
 11
234.1805837428
 21
339.1893533101
 31
0.0
  0
LINE
  5
2DE
330
40A
100
AcDbEntity
  8
0
  6
CONTINUOUS
 62
     7
100
AcDbLine
 10
233.615610263
 20
339.1893533101
 30
0.0
 11
233.4480970029
 21
339.3568665702
 31
0.0
  0
LINE
  5
2DF
330
40A
100
AcDbEntity
  8
0
  6
CONTINUOUS
 62
     7
100
AcDbLine
 10
233.615610263
 20
339.3568665702
 30
0.0
 11
233.615610263
 21
339.1893533101
 31
0.0
  0
LINE
  5
2E0
330
40A
100
AcDbEntity
  8
0
  6
CONTINUOUS
 62
     7
100
AcDbLine
 10
233.615610263
 20
339.1893533101
 30
0.0
 11
233.4480970029
 21
339.1893533101
 31
0.0
  0
LINE
  5
2E1
330
40A
100
AcDbEntity
  8
0
  6
CONTINUOUS
 62
     7
100
AcDbLine
 10
234.3480970029
 20
339.1893533101
 30
0.0
 11
234.1805837428
 21
339.1893533101
 31
0.0
  0
LINE
  5
2E2
330
40A
100
AcDbEntity
  8
0
  6
CONTINUOUS
 62
     7
100
AcDbLine
 10
233.615610263
 20
338.6243798303
 30
0.0
 11
233.4480970029
 21
338.6243798303
 31
0.0
  0
LINE
  5
2E3
330
40A
100
AcDbEntity
  8
0
  6
CONTINUOUS
 62
     7
100
AcDbLine
 10
233.4480970029
 20
338.4568665702
 30
0.0
 11
233.615610263
 21
338.6243798303
 31
0.0
  0
LINE
  5
2E4
330
40A
100
AcDbEntity
  8
0
  6
CONTINUOUS
 62
     7
100
AcDbLine
 10
233.615610263
 20
338.6243798303
 30
0.0
 11
233.615610263
 21
338.4568665702
 31
0.0
  0
LINE
  5
2E5
330
40A
100
AcDbEntity
  8
0
  6
CONTINUOUS
 62
     7
100
AcDbLine
 10
234.1805837428
 20
338.6243798303
 30
0.0
 11
234.3480970029
 21
338.4568665702
 31
0.0
  0
LINE
  5
2E6
330
40A
100
AcDbEntity
  8
0
  6
CONTINUOUS
 62
     7
100
AcDbLine
 10
234.3480970029
 20
338.6243798303
 30
0.0
 11
234.1805837428
 21
338.6243798303
 31
0.0
  0
LINE
  5
2E7
330
40A
100
AcDbEntity
  8
0
  6
CONTINUOUS
 62
     7
100
AcDbLine
 10
234.1805837428
 20
338.6243798303
 30
0.0
 11
234.1805837428
 21
338.4568665702
 31
0.0
  0
LINE
  5
2E8
330
40A
100
AcDbEntity
  8
0
  6
CONTINUOUS
 62
     7
100
AcDbLine
 10
233.8980970029
 20
338.9068665702
 30
0.0
 11
233.615610263
 21
339.1893533101
 31
0.0
  0
LINE
  5
2E9
330
40A
100
AcDbEntity
  8
0
  6
CONTINUOUS
 62
     7
100
AcDbLine
 10
234.1805837428
 20
339.1893533101
 30
0.0
 11
233.8980970029
 21
338.9068665702
 31
0.0
  0
LINE
  5
2EA
330
40A
100
AcDbEntity
  8
0
  6
CONTINUOUS
 62
     7
100
AcDbLine
 10
233.8980970029
 20
338.9068665702
 30
0.0
 11
234.1805837428
 21
338.6243798303
 31
0.0
  0
LINE
  5
2EB
330
40A
100
AcDbEntity
  8
0
  6
CONTINUOUS
 62
     7
100
AcDbLine
 10
233.615610263
 20
338.6243798303
 30
0.0
 11
233.8980970029
 21
338.9068665702
 31
0.0
  0
LINE
  5
2EC
330
40A
100
AcDbEntity
  8
0
  6
CONTINUOUS
 62
     7
100
AcDbLine
 10
229.8980970029
 20
222.0068665702
 30
0.0
 11
229.8980970029
 21
251.4068665702
 31
0.0
  0
LINE
  5
2ED
330
40A
100
AcDbEntity
  8
0
  6
CONTINUOUS
 62
     7
100
AcDbLine
 10
229.8980970029
 20
251.4068665702
 30
0.0
 11
230.1980970029
 21
251.4068665702
 31
0.0
  0
LINE
  5
2EE
330
40A
100
AcDbEntity
  8
0
  6
CONTINUOUS
 62
     7
100
AcDbLine
 10
230.1980970029
 20
251.4068665702
 30
0.0
 11
230.1980970029
 21
222.0068665702
 31
0.0
  0
LINE
  5
2EF
330
40A
100
AcDbEntity
  8
0
  6
CONTINUOUS
 62
     7
100
AcDbLine
 10
230.1980970029
 20
222.0068665702
 30
0.0
 11
229.8980970029
 21
222.0068665702
 31
0.0
  0
LINE
  5
2F0
330
40A
100
AcDbEntity
  8
0
  6
CONTINUOUS
 62
     7
100
AcDbLine
 10
230.1980970029
 20
251.7068665702
 30
0.0
 11
237.5980970029
 21
251.7068665702
 31
0.0
  0
LINE
  5
2F1
330
40A
100
AcDbEntity
  8
0
  6
CONTINUOUS
 62
     7
100
AcDbLine
 10
237.5980970029
 20
251.7068665702
 30
0.0
 11
237.5980970029
 21
251.4068665702
 31
0.0
  0
LINE
  5
2F2
330
40A
100
AcDbEntity
  8
0
  6
CONTINUOUS
 62
     7
100
AcDbLine
 10
237.5980970029
 20
251.4068665702
 30
0.0
 11
230.1980970029
 21
251.4068665702
 31
0.0
  0
LINE
  5
2F3
330
40A
100
AcDbEntity
  8
0
  6
CONTINUOUS
 62
     7
100
AcDbLine
 10
230.1980970029
 20
251.7068665702
 30
0.0
 11
230.1980970029
 21
251.4068665702
 31
0.0
  0
LINE
  5
2F4
330
40A
100
AcDbEntity
  8
0
  6
CONTINUOUS
 62
     7
100
AcDbLine
 10
237.5980970029
 20
222.0068665702
 30
0.0
 11
237.5980970029
 21
251.4068665702
 31
0.0
  0
LINE
  5
2F5
330
40A
100
AcDbEntity
  8
0
  6
CONTINUOUS
 62
     7
100
AcDbLine
 10
230.1980970029
 20
222.0068665702
 30
0.0
 11
237.5980970029
 21
222.0068665702
 31
0.0
  0
ARC
  5
2F6
330
40A
100
AcDbEntity
  8
0
  6
CONTINUOUS
 62
     7
100
AcDbCircle
 10
230.1980970029
 20
251.4068665702
 30
0.0
 40
0.3000000000000114
100
AcDbArc
 50
90.0
 51
180.0
  0
LINE
  5
2F7
330
40A
100
AcDbEntity
  8
0
  6
CONTINUOUS
 62
     7
100
AcDbLine
 10
237.8980970029
 20
251.4068665702
 30
0.0
 11
237.8980970029
 21
222.0068665702
 31
0.0
  0
LINE
  5
2F8
330
40A
100
AcDbEntity
  8
0
  6
CONTINUOUS
 62
     7
100
AcDbLine
 10
237.8980970029
 20
222.0068665702
 30
0.0
 11
237.5980970029
 21
222.0068665702
 31
0.0
  0
LINE
  5
2F9
330
40A
100
AcDbEntity
  8
0
  6
CONTINUOUS
 62
     7
100
AcDbLine
 10
237.5980970029
 20
251.4068665702
 30
0.0
 11
237.8980970029
 21
251.4068665702
 31
0.0
  0
ARC
  5
2FA
330
40A
100
AcDbEntity
  8
0
  6
CONTINUOUS
 62
     7
100
AcDbCircle
 10
237.5980970029
 20
251.4068665702
 30
0.0
 40
0.3000000000000114
100
AcDbArc
 50
0.0
 51
90.0
  0
ARC
  5
2FB
330
40A
100
AcDbEntity
  8
0
  6
CONTINUOUS
 62
     7
100
AcDbCircle
 10
230.1980970029
 20
222.0068665702
 30
0.0
 40
0.3000000000000398
100
AcDbArc
 50
180.0
 51
270.0
  0
LINE
  5
2FC
330
40A
100
AcDbEntity
  8
0
  6
CONTINUOUS
 62
     7
100
AcDbLine
 10
230.1980970029
 20
222.0068665702
 30
0.0
 11
230.1980970029
 21
221.7068665702
 31
0.0
  0
LINE
  5
2FD
330
40A
100
AcDbEntity
  8
0
  6
CONTINUOUS
 62
     7
100
AcDbLine
 10
237.5980970029
 20
222.0068665702
 30
0.0
 11
237.5980970029
 21
221.7068665702
 31
0.0
  0
LINE
  5
2FE
330
40A
100
AcDbEntity
  8
0
  6
CONTINUOUS
 62
     7
100
AcDbLine
 10
237.5980970029
 20
221.7068665702
 30
0.0
 11
230.1980970029
 21
221.7068665702
 31
0.0
  0
ARC
  5
2FF
330
40A
100
AcDbEntity
  8
0
  6
CONTINUOUS
 62
     7
100
AcDbCircle
 10
237.5980970029
 20
222.0068665702
 30
0.0
 40
0.3000000000000114
100
AcDbArc
 50
270.0
 51
0.0
  0
LINE
  5
300
330
40A
100
AcDbEntity
  8
0
  6
CONTINUOUS
 62
     7
100
AcDbLine
 10
229.7957079623
 20
328.0068665702
 30
0.0
 11
229.7957079623
 21
296.0068665702
 31
0.0
  0
LINE
  5
301
330
40A
100
AcDbEntity
  8
0
  6
CONTINUOUS
 62
     7
100
AcDbLine
 10
229.7957079623
 20
296.0068665702
 30
0.0
 11
228.9613260355
 21
296.0068665702
 31
0.0
  0
LINE
  5
302
330
40A
100
AcDbEntity
  8
0
  6
CONTINUOUS
 62
     7
100
AcDbLine
 10
228.9613260355
 20
328.0068665702
 30
0.0
 11
228.9613260355
 21
296.0068665702
 31
0.0
  0
LINE
  5
303
330
40A
100
AcDbEntity
  8
0
  6
CONTINUOUS
 62
     7
100
AcDbLine
 10
229.7957079623
 20
328.0068665702
 30
0.0
 11
228.9613260355
 21
328.0068665702
 31
0.0
  0
LINE
  5
304
330
40A
100
AcDbEntity
  8
0
  6
CONTINUOUS
 62
     7
100
AcDbLine
 10
237.0007174565
 20
299.9885960021
 30
0.0
 11
231.8980970029
 21
299.9885960021
 31
0.0
  0
LINE
  5
305
330
40A
100
AcDbEntity
  8
0
  6
CONTINUOUS
 62
     7
100
AcDbLine
 10
231.8980970029
 20
299.9885960021
 30
0.0
 11
230.5580970029
 21
296.0068665702
 31
0.0
  0
LINE
  5
306
330
40A
100
AcDbEntity
  8
0
  6
CONTINUOUS
 62
     7
100
AcDbLine
 10
231.8980970029
 20
324.0251371383
 30
0.0
 11
230.5580970029
 21
328.0068665702
 31
0.0
  0
LINE
  5
307
330
40A
100
AcDbEntity
  8
0
  6
CONTINUOUS
 62
     7
100
AcDbLine
 10
237.0007174565
 20
324.0251371383
 30
0.0
 11
231.8980970029
 21
324.0251371383
 31
0.0
  0
LINE
  5
308
330
40A
100
AcDbEntity
  8
0
  6
CONTINUOUS
 62
     7
100
AcDbLine
 10
237.0007174565
 20
324.0251371383
 30
0.0
 11
237.0007174565
 21
314.1068665702
 31
0.0
  0
LINE
  5
309
330
40A
100
AcDbEntity
  8
0
  6
CONTINUOUS
 62
     7
100
AcDbLine
 10
237.0007174565
 20
314.1068665702
 30
0.0
 11
236.5631507087
 21
314.1068665702
 31
0.0
  0
LINE
  5
30A
330
40A
100
AcDbEntity
  8
0
  6
CONTINUOUS
 62
     7
100
AcDbLine
 10
236.5631507087
 20
318.7568665702
 30
0.0
 11
236.5631507087
 21
314.1068665702
 31
0.0
  0
LINE
  5
30B
330
40A
100
AcDbEntity
  8
0
  6
CONTINUOUS
 62
     7
100
AcDbLine
 10
236.5631507087
 20
318.7568665702
 30
0.0
 11
233.5933022277
 21
318.7568665702
 31
0.0
  0
LINE
  5
30C
330
40A
100
AcDbEntity
  8
0
  6
CONTINUOUS
 62
     7
100
AcDbLine
 10
233.5933022277
 20
318.7568665702
 30
0.0
 11
233.5933022277
 21
314.1068665702
 31
0.0
  0
LINE
  5
30D
330
40A
100
AcDbEntity
  8
0
  6
CONTINUOUS
 62
     7
100
AcDbLine
 10
233.5933022277
 20
314.1068665702
 30
0.0
 11
230.2513589025
 21
314.1068665702
 31
0.0
  0
LINE
  5
30E
330
40A
100
AcDbEntity
  8
0
  6
CONTINUOUS
 62
     7
100
AcDbLine
 10
230.2513589025
 20
314.1068665702
 30
0.0
 11
230.2513589025
 21
309.9068665702
 31
0.0
  0
LINE
  5
30F
330
40A
100
AcDbEntity
  8
0
  6
CONTINUOUS
 62
     7
100
AcDbLine
 10
233.5933022277
 20
309.9068665702
 30
0.0
 11
230.2513589025
 21
309.9068665702
 31
0.0
  0
LINE
  5
310
330
40A
100
AcDbEntity
  8
0
  6
CONTINUOUS
 62
     7
100
AcDbLine
 10
233.5933022277
 20
309.9068665702
 30
0.0
 11
233.5933022277
 21
305.2568665702
 31
0.0
  0
LINE
  5
311
330
40A
100
AcDbEntity
  8
0
  6
CONTINUOUS
 62
     7
100
AcDbLine
 10
236.5631507087
 20
305.2568665702
 30
0.0
 11
233.5933022277
 21
305.2568665702
 31
0.0
  0
LINE
  5
312
330
40A
100
AcDbEntity
  8
0
  6
CONTINUOUS
 62
     7
100
AcDbLine
 10
236.5631507087
 20
309.9068665702
 30
0.0
 11
236.5631507087
 21
305.2568665702
 31
0.0
  0
LINE
  5
313
330
40A
100
AcDbEntity
  8
0
  6
CONTINUOUS
 62
     7
100
AcDbLine
 10
237.0007174565
 20
309.9068665702
 30
0.0
 11
236.5631507087
 21
309.9068665702
 31
0.0
  0
LINE
  5
314
330
40A
100
AcDbEntity
  8
0
  6
CONTINUOUS
 62
     7
100
AcDbLine
 10
237.0007174565
 20
309.9068665702
 30
0.0
 11
237.0007174565
 21
299.9885960021
 31
0.0
  0
LINE
  5
315
330
40A
100
AcDbEntity
  8
0
  6
CONTINUOUS
 62
     7
100
AcDbLine
 10
230.5580970029
 20
296.0068665702
 30
0.0
 11
229.7957079623
 21
296.0068665702
 31
0.0
  0
LINE
  5
316
330
40A
100
AcDbEntity
  8
0
  6
CONTINUOUS
 62
     7
100
AcDbLine
 10
230.5580970029
 20
328.0068665702
 30
0.0
 11
229.7957079623
 21
328.0068665702
 31
0.0
  0
LINE
  5
317
330
40A
100
AcDbEntity
  8
0
  6
CONTINUOUS
 62
     7
100
AcDbLine
 10
227.8980970029
 20
296.0068665702
 30
0.0
 11
227.8980970029
 21
328.0068665702
 31
0.0
  0
LINE
  5
318
330
40A
100
AcDbEntity
  8
0
  6
CONTINUOUS
 62
     7
100
AcDbLine
 10
227.8980970029
 20
296.0068665702
 30
0.0
 11
228.9613260355
 21
296.0068665702
 31
0.0
  0
LINE
  5
319
330
40A
100
AcDbEntity
  8
0
  6
CONTINUOUS
 62
     7
100
AcDbLine
 10
227.8980970029
 20
328.0068665702
 30
0.0
 11
228.9613260355
 21
328.0068665702
 31
0.0
  0
LINE
  5
31A
330
40A
100
AcDbEntity
  8
0
  6
CONTINUOUS
 62
     7
100
AcDbLine
 10
232.3123105653
 20
275.7068665702
 30
0.0
 11
232.3123105653
 21
279.7068665702
 31
0.0
  0
LINE
  5
31B
330
40A
100
AcDbEntity
  8
0
  6
CONTINUOUS
 62
     7
100
AcDbLine
 10
228.8980970029
 20
275.7068665702
 30
0.0
 11
232.3123105653
 21
275.7068665702
 31
0.0
  0
LINE
  5
31C
330
40A
100
AcDbEntity
  8
0
  6
CONTINUOUS
 62
     7
100
AcDbLine
 10
228.8980970029
 20
275.7068665702
 30
0.0
 11
228.8980970029
 21
279.7068665702
 31
0.0
  0
LINE
  5
31D
330
40A
100
AcDbEntity
  8
0
  6
CONTINUOUS
 62
     7
100
AcDbLine
 10
228.8980970029
 20
279.7068665702
 30
0.0
 11
232.3123105653
 21
279.7068665702
 31
0.0
  0
LINE
  5
31E
330
40A
100
AcDbEntity
  8
0
  6
CONTINUOUS
 62
     7
100
AcDbLine
 10
238.3123105653
 20
275.7068665702
 30
0.0
 11
238.3123105653
 21
279.7068665702
 31
0.0
  0
LINE
  5
31F
330
40A
100
AcDbEntity
  8
0
  6
CONTINUOUS
 62
     7
100
AcDbLine
 10
238.3123105653
 20
275.7068665702
 30
0.0
 11
232.3123105653
 21
275.7068665702
 31
0.0
  0
LINE
  5
320
330
40A
100
AcDbEntity
  8
0
  6
CONTINUOUS
 62
     7
100
AcDbLine
 10
238.3123105653
 20
279.7068665702
 30
0.0
 11
232.3123105653
 21
279.7068665702
 31
0.0
  0
LINE
  5
321
330
40A
100
AcDbEntity
  8
0
  6
CONTINUOUS
 62
     7
100
AcDbLine
 10
235.1489371463
 20
309.9068665702
 30
0.0
 11
235.1489371463
 21
305.2568665702
 31
0.0
  0
LINE
  5
322
330
40A
100
AcDbEntity
  8
0
  6
CONTINUOUS
 62
     7
100
AcDbLine
 10
235.1489371463
 20
318.7568665702
 30
0.0
 11
235.1489371463
 21
314.1068665702
 31
0.0
  0
LINE
  5
323
330
40A
100
AcDbEntity
  8
0
  6
CONTINUOUS
 62
     7
100
AcDbLine
 10
238.3830868861
 20
314.1068665702
 30
0.0
 11
238.3830868861
 21
309.9068665702
 31
0.0
  0
LINE
  5
324
330
40A
100
AcDbEntity
  8
0
  6
CONTINUOUS
 62
     7
100
AcDbLine
 10
235.1489371463
 20
314.1068665702
 30
0.0
 11
236.5631507087
 21
314.1068665702
 31
0.0
  0
LINE
  5
325
330
40A
100
AcDbEntity
  8
0
  6
CONTINUOUS
 62
     7
100
AcDbLine
 10
235.1489371463
 20
309.9068665702
 30
0.0
 11
236.5631507087
 21
309.9068665702
 31
0.0
  0
LINE
  5
326
330
40A
100
AcDbEntity
  8
0
  6
CONTINUOUS
 62
     7
100
AcDbLine
 10
237.3657174565
 20
324.0251371383
 30
0.0
 11
237.3657174565
 21
314.1068665702
 31
0.0
  0
LINE
  5
327
330
40A
100
AcDbEntity
  8
0
  6
CONTINUOUS
 62
     7
100
AcDbLine
 10
237.0060764402
 20
314.1068665702
 30
0.0
 11
237.0007174565
 21
314.1068665702
 31
0.0
  0
LINE
  5
328
330
40A
100
AcDbEntity
  8
0
  6
CONTINUOUS
 62
     7
100
AcDbLine
 10
237.3657174565
 20
314.1068665702
 30
0.0
 11
237.0060764402
 21
314.1068665702
 31
0.0
  0
LINE
  5
329
330
40A
100
AcDbEntity
  8
0
  6
CONTINUOUS
 62
     7
100
AcDbLine
 10
237.3657174565
 20
324.0251371383
 30
0.0
 11
237.0007174565
 21
324.0251371383
 31
0.0
  0
LINE
  5
32A
330
40A
100
AcDbEntity
  8
0
  6
CONTINUOUS
 62
     7
100
AcDbLine
 10
237.3657174565
 20
309.9068665702
 30
0.0
 11
237.3657174565
 21
299.9885960021
 31
0.0
  0
LINE
  5
32B
330
40A
100
AcDbEntity
  8
0
  6
CONTINUOUS
 62
     7
100
AcDbLine
 10
237.3657174565
 20
309.9068665702
 30
0.0
 11
237.0060764402
 21
309.9068665702
 31
0.0
  0
LINE
  5
32C
330
40A
100
AcDbEntity
  8
0
  6
CONTINUOUS
 62
     7
100
AcDbLine
 10
237.0060764402
 20
309.9068665702
 30
0.0
 11
237.0007174565
 21
309.9068665702
 31
0.0
  0
LINE
  5
32D
330
40A
100
AcDbEntity
  8
0
  6
CONTINUOUS
 62
     7
100
AcDbLine
 10
237.3657174565
 20
299.9885960021
 30
0.0
 11
237.0007174565
 21
299.9885960021
 31
0.0
  0
LINE
  5
32E
330
40A
100
AcDbEntity
  8
0
  6
CONTINUOUS
 62
     7
100
AcDbLine
 10
239.8640970029
 20
324.0251371383
 30
0.0
 11
239.8640970029
 21
299.9885960021
 31
0.0
  0
LINE
  5
32F
330
40A
100
AcDbEntity
  8
0
  6
CONTINUOUS
 62
     7
100
AcDbLine
 10
239.2944378564
 20
314.1068665702
 30
0.0
 11
239.2944378564
 21
309.9068665702
 31
0.0
  0
LINE
  5
330
330
40A
100
AcDbEntity
  8
0
  6
CONTINUOUS
 62
     7
100
AcDbLine
 10
239.2944378564
 20
309.9068665702
 30
0.0
 11
237.3657174565
 21
309.9068665702
 31
0.0
  0
LINE
  5
331
330
40A
100
AcDbEntity
  8
0
  6
CONTINUOUS
 62
     7
100
AcDbLine
 10
239.2944378564
 20
314.1068665702
 30
0.0
 11
237.3657174565
 21
314.1068665702
 31
0.0
  0
LINE
  5
332
330
40A
100
AcDbEntity
  8
0
  6
CONTINUOUS
 62
     7
100
AcDbLine
 10
239.8640970029
 20
299.9885960021
 30
0.0
 11
237.3657174565
 21
299.9885960021
 31
0.0
  0
LINE
  5
333
330
40A
100
AcDbEntity
  8
0
  6
CONTINUOUS
 62
     7
100
AcDbLine
 10
239.8640970029
 20
324.0251371383
 30
0.0
 11
237.3657174565
 21
324.0251371383
 31
0.0
  0
LINE
  5
334
330
40A
100
AcDbEntity
  8
0
  6
CONTINUOUS
 62
     7
100
AcDbLine
 10
238.8980970029
 20
279.7068665702
 30
0.0
 11
238.8980970029
 21
275.7068665702
 31
0.0
  0
LINE
  5
335
330
40A
100
AcDbEntity
  8
0
  6
CONTINUOUS
 62
     7
100
AcDbLine
 10
238.8980970029
 20
275.7068665702
 30
0.0
 11
238.3123105653
 21
275.7068665702
 31
0.0
  0
LINE
  5
336
330
40A
100
AcDbEntity
  8
0
  6
CONTINUOUS
 62
     7
100
AcDbLine
 10
238.3123105653
 20
279.7068665702
 30
0.0
 11
238.8980970029
 21
279.7068665702
 31
0.0
  0
LINE
  5
337
330
40A
100
AcDbEntity
  8
0
  6
CONTINUOUS
 62
     7
100
AcDbLine
 10
239.8980970029
 20
324.0251371383
 30
0.0
 11
239.8980970029
 21
299.9885960021
 31
0.0
  0
LINE
  5
338
330
40A
100
AcDbEntity
  8
0
  6
CONTINUOUS
 62
     7
100
AcDbLine
 10
239.8980970029
 20
299.9885960021
 30
0.0
 11
239.8640970029
 21
299.9885960021
 31
0.0
  0
LINE
  5
339
330
40A
100
AcDbEntity
  8
0
  6
CONTINUOUS
 62
     7
100
AcDbLine
 10
239.8980970029
 20
324.0251371383
 30
0.0
 11
239.8640970029
 21
324.0251371383
 31
0.0
  0
LINE
  5
33A
330
40A
100
AcDbEntity
  8
0
  6
CONTINUOUS
 62
     7
100
AcDbLine
 10
229.8980970029
 20
222.0068665702
 30
0.0
 11
229.8480970029
 21
222.0068665702
 31
0.0
  0
LINE
  5
33B
330
40A
100
AcDbEntity
  8
0
  6
CONTINUOUS
 62
     7
100
AcDbLine
 10
229.8480970029
 20
251.4068665702
 30
0.0
 11
229.8980970029
 21
251.4068665702
 31
0.0
  0
LINE
  5
33C
330
40A
100
AcDbEntity
  8
0
  6
CONTINUOUS
 62
     7
100
AcDbLine
 10
230.1980970029
 20
251.7568665702
 30
0.0
 11
230.1980970029
 21
251.7068665702
 31
0.0
  0
LINE
  5
33D
330
40A
100
AcDbEntity
  8
0
  6
CONTINUOUS
 62
     7
100
AcDbLine
 10
237.5980970029
 20
251.7568665702
 30
0.0
 11
237.5980970029
 21
251.7068665702
 31
0.0
  0
LINE
  5
33E
330
40A
100
AcDbEntity
  8
0
  6
CONTINUOUS
 62
     7
100
AcDbLine
 10
237.9480970029
 20
251.4068665702
 30
0.0
 11
237.8980970029
 21
251.4068665702
 31
0.0
  0
LINE
  5
33F
330
40A
100
AcDbEntity
  8
0
  6
CONTINUOUS
 62
     7
100
AcDbLine
 10
237.8980970029
 20
222.0068665702
 30
0.0
 11
237.9480970029
 21
222.0068665702
 31
0.0
  0
LINE
  5
340
330
40A
100
AcDbEntity
  8
0
  6
CONTINUOUS
 62
     7
100
AcDbLine
 10
230.1980970029
 20
221.7068665702
 30
0.0
 11
230.1980970029
 21
221.6568665702
 31
0.0
  0
LINE
  5
341
330
40A
100
AcDbEntity
  8
0
  6
CONTINUOUS
 62
     7
100
AcDbLine
 10
237.5980970029
 20
221.7068665702
 30
0.0
 11
237.5980970029
 21
221.6568665702
 31
0.0
  0
INSERT
  5
38E
330
40A
100
AcDbEntity
  8
0
  6
CONTINUOUS
 62
     7
100
AcDbBlockReference
  2
SW_CENTERMARKSYMBOL_7
 10
233.8980970029
 20
368.7068665702
 30
0.0
  0
INSERT
  5
39A
330
40A
100
AcDbEntity
  8
0
  6
CONTINUOUS
 62
     7
100
AcDbBlockReference
  2
SW_CENTERMARKSYMBOL_8
 10
233.8980970029
 20
156.7068665702
 30
0.0
  0
LINE
  5
39B
330
40A
100
AcDbEntity
  8
0
  6
CENTERX2
 62
     7
100
AcDbLine
 10
233.8980970029
 20
143.2965067768
 30
0.0
 11
233.8980970029
 21
383.742135718
 31
0.0
  0
ARC
  5
39C
330
40A
100
AcDbEntity
  8
0
  6
CONTINUOUS
 62
     7
100
AcDbCircle
 10
108.0382176343
 20
78.5316012085
 30
0.0
 40
2.000000000000028
100
AcDbArc
 50
270.0
 51
0.0
  0
LINE
  5
39D
330
40A
100
AcDbEntity
  8
0
  6
CONTINUOUS
 62
     7
100
AcDbLine
 10
77.4382176343
 20
76.5316012085
 30
0.0
 11
108.0382176343
 21
76.5316012085
 31
0.0
  0
LINE
  5
39E
330
40A
100
AcDbEntity
  8
0
  6
CONTINUOUS
 62
     7
100
AcDbLine
 10
108.0382176343
 20
92.0316012085
 30
0.0
 11
77.4382176343
 21
92.0316012085
 31
0.0
  0
ARC
  5
39F
330
40A
100
AcDbEntity
  8
0
  6
CONTINUOUS
 62
     7
100
AcDbCircle
 10
108.0382176343
 20
90.0316012085
 30
0.0
 40
2.000000000000014
100
AcDbArc
 50
0.0
 51
90.0
  0
LINE
  5
3A0
330
40A
100
AcDbEntity
  8
0
  6
CONTINUOUS
 62
     7
100
AcDbLine
 10
110.0382176343
 20
78.5316012085
 30
0.0
 11
110.0382176343
 21
90.0316012085
 31
0.0
  0
LINE
  5
3A1
330
40A
100
AcDbEntity
  8
0
  6
CONTINUOUS
 62
     7
100
AcDbLine
 10
77.4382176343
 20
93.2816012085
 30
0.0
 11
74.4382176343
 21
93.2816012085
 31
0.0
  0
LINE
  5
3A2
330
40A
100
AcDbEntity
  8
0
  6
CONTINUOUS
 62
     7
100
AcDbLine
 10
77.4382176343
 20
75.2816012085
 30
0.0
 11
74.4382176343
 21
75.2816012085
 31
0.0
  0
LINE
  5
3A3
330
40A
100
AcDbEntity
  8
0
  6
CONTINUOUS
 62
     7
100
AcDbLine
 10
74.4382176343
 20
75.2816012085
 30
0.0
 11
74.4382176343
 21
93.2816012085
 31
0.0
  0
LINE
  5
3A4
330
40A
100
AcDbEntity
  8
0
  6
CONTINUOUS
 62
     7
100
AcDbLine
 10
77.4382176343
 20
75.2816012085
 30
0.0
 11
77.4382176343
 21
93.2816012085
 31
0.0
  0
ARC
  5
3A5
330
40A
100
AcDbEntity
  8
0
  6
CONTINUOUS
 62
     7
100
AcDbCircle
 10
146.8472273766
 20
91.1566012085
 30
0.0
 40
0.8926785535677896
100
AcDbArc
 50
351.9505330245
 51
78.578246341
  0
LINE
  5
3A6
330
40A
100
AcDbEntity
  8
0
  6
CONTINUOUS
 62
     7
100
AcDbLine
 10
147.0240040719
 20
91.0316012085
 30
0.0
 11
147.7311108531
 21
91.0316012085
 31
0.0
  0
LINE
  5
3A7
330
40A
100
AcDbEntity
  8
0
  6
CONTINUOUS
 62
     7
100
AcDbLine
 10
147.0240040719
 20
92.0316012085
 30
0.0
 11
147.0240040719
 21
91.0316012085
 31
0.0
  0
LINE
  5
3A8
330
40A
100
AcDbEntity
  8
0
  6
CONTINUOUS
 62
     7
100
AcDbLine
 10
147.7311108531
 20
91.0316012085
 30
0.0
 11
147.7311108531
 21
77.5316012085
 31
0.0
  0
LINE
  5
3A9
330
40A
100
AcDbEntity
  8
0
  6
CONTINUOUS
 62
     7
100
AcDbLine
 10
147.7311108531
 20
77.5316012085
 30
0.0
 11
147.0240040719
 21
77.5316012085
 31
0.0
  0
LINE
  5
3AA
330
40A
100
AcDbEntity
  8
0
  6
CONTINUOUS
 62
     7
100
AcDbLine
 10
147.0240040719
 20
77.5316012085
 30
0.0
 11
147.0240040719
 21
91.0316012085
 31
0.0
  0
LINE
  5
3AB
330
40A
100
AcDbEntity
  8
0
  6
CONTINUOUS
 62
     7
100
AcDbLine
 10
108.0382176343
 20
92.0316012085
 30
0.0
 11
147.0240040719
 21
92.0316012085
 31
0.0
  0
ARC
  5
3AC
330
40A
100
AcDbEntity
  8
0
  6
CONTINUOUS
 62
     7
100
AcDbCircle
 10
146.8472273766
 20
77.4066012085
 30
0.0
 40
0.8926785535678633
100
AcDbArc
 50
281.421753659
 51
8.0494669755
  0
LINE
  5
3AD
330
40A
100
AcDbEntity
  8
0
  6
CONTINUOUS
 62
     7
100
AcDbLine
 10
147.0240040719
 20
77.5316012085
 30
0.0
 11
147.0240040719
 21
76.5316012085
 31
0.0
  0
LINE
  5
3AE
330
40A
100
AcDbEntity
  8
0
  6
CONTINUOUS
 62
     7
100
AcDbLine
 10
147.0240040719
 20
76.5316012085
 30
0.0
 11
108.0382176343
 21
76.5316012085
 31
0.0
  0
LINE
  5
3AF
330
40A
100
AcDbEntity
  8
0
  6
CONTINUOUS
 62
     7
100
AcDbLine
 10
147.0240040719
 20
92.0316012085
 30
0.0
 11
163.4382176343
 21
92.0316012085
 31
0.0
  0
ARC
  5
3B0
330
40A
100
AcDbEntity
  8
0
  6
CONTINUOUS
 62
     7
100
AcDbCircle
 10
163.261440939
 20
91.1566012085
 30
0.0
 40
0.8926785535677896
100
AcDbArc
 50
351.9505330245
 51
78.578246341
  0
LINE
  5
3B1
330
40A
100
AcDbEntity
  8
0
  6
CONTINUOUS
 62
     7
100
AcDbLine
 10
164.1453244155
 20
91.0316012085
 30
0.0
 11
147.7311108531
 21
91.0316012085
 31
0.0
  0
LINE
  5
3B2
330
40A
100
AcDbEntity
  8
0
  6
CONTINUOUS
 62
     7
100
AcDbLine
 10
164.1453244155
 20
77.5316012085
 30
0.0
 11
164.1453244155
 21
91.0316012085
 31
0.0
  0
LINE
  5
3B3
330
40A
100
AcDbEntity
  8
0
  6
CONTINUOUS
 62
     7
100
AcDbLine
 10
147.7311108531
 20
77.5316012085
 30
0.0
 11
164.1453244155
 21
77.5316012085
 31
0.0
  0
ARC
  5
3B4
330
40A
100
AcDbEntity
  8
0
  6
CONTINUOUS
 62
     7
100
AcDbCircle
 10
163.261440939
 20
77.4066012085
 30
0.0
 40
0.8926785535678565
100
AcDbArc
 50
281.421753659
 51
8.0494669755
  0
LINE
  5
3B5
330
40A
100
AcDbEntity
  8
0
  6
CONTINUOUS
 62
     7
100
AcDbLine
 10
163.4382176343
 20
76.5316012085
 30
0.0
 11
147.0240040719
 21
76.5316012085
 31
0.0
  0
LINE
  5
3B6
330
40A
100
AcDbEntity
  8
0
  6
CONTINUOUS
 62
     7
100
AcDbLine
 10
64.3415971807
 20
87.6216012085
 30
0.0
 11
63.5792081401
 21
88.383990249
 31
0.0
  0
ARC
  5
3B7
330
40A
100
AcDbEntity
  8
0
  6
CONTINUOUS
 62
     7
100
AcDbCircle
 10
63.9382176343
 20
88.7320020061
 30
0.0
 40
0.500000000000025
100
AcDbArc
 50
103.4087835357
 51
224.1088342795
  0
LINE
  5
3B8
330
40A
100
AcDbEntity
  8
0
  6
CONTINUOUS
 62
     7
100
AcDbLine
 10
73.9382176343
 20
90.2816012085
 30
0.0
 11
63.8222691198
 21
89.2183721759
 31
0.0
  0
LINE
  5
3B9
330
40A
100
AcDbEntity
  8
0
  6
CONTINUOUS
 62
     7
100
AcDbLine
 10
64.3415971807
 20
87.6216012085
 30
0.0
 11
74.4382176343
 21
87.6216012085
 31
0.0
  0
LINE
  5
3BA
330
40A
100
AcDbEntity
  8
0
  6
CONTINUOUS
 62
     7
100
AcDbLine
 10
73.9382176343
 20
90.2816012085
 30
0.0
 11
74.4382176343
 21
90.2816012085
 31
0.0
  0
LINE
  5
3BB
330
40A
100
AcDbEntity
  8
0
  6
CONTINUOUS
 62
     7
100
AcDbLine
 10
65.6815971807
 20
86.2816012085
 30
0.0
 11
64.3415971807
 21
87.6216012085
 31
0.0
  0
LINE
  5
3BC
330
40A
100
AcDbEntity
  8
0
  6
CONTINUOUS
 62
     7
100
AcDbLine
 10
65.6815971807
 20
86.2816012085
 30
0.0
 11
74.4382176343
 21
86.2816012085
 31
0.0
  0
ARC
  5
3BD
330
40A
100
AcDbEntity
  8
0
  6
CONTINUOUS
 62
     7
100
AcDbCircle
 10
163.4382176343
 20
91.0316012085
 30
0.0
 40
1.0
100
AcDbArc
 50
0.0
 51
90.0
  0
LINE
  5
3BE
330
40A
100
AcDbEntity
  8
0
  6
CONTINUOUS
 62
     7
100
AcDbLine
 10
164.1453244155
 20
91.0316012085
 30
0.0
 11
164.4382176343
 21
91.0316012085
 31
0.0
  0
LINE
  5
3BF
330
40A
100
AcDbEntity
  8
0
  6
CONTINUOUS
 62
     7
100
AcDbLine
 10
164.4382176343
 20
91.0316012085
 30
0.0
 11
164.4382176343
 21
77.5316012085
 31
0.0
  0
LINE
  5
3C0
330
40A
100
AcDbEntity
  8
0
  6
CONTINUOUS
 62
     7
100
AcDbLine
 10
164.4382176343
 20
77.5316012085
 30
0.0
 11
164.1453244155
 21
77.5316012085
 31
0.0
  0
ARC
  5
3C1
330
40A
100
AcDbEntity
  8
0
  6
CONTINUOUS
 62
     7
100
AcDbCircle
 10
163.4382176343
 20
77.5316012085
 30
0.0
 40
1.0
100
AcDbArc
 50
270.0
 51
0.0
  0
LINE
  5
3C2
330
40A
100
AcDbEntity
  8
0
  6
CONTINUOUS
 62
     7
100
AcDbLine
 10
74.4382176343
 20
78.6461103817
 30
0.0
 11
71.2242176343
 21
80.8139807548
 31
0.0
  0
ARC
  5
3C3
330
40A
100
AcDbEntity
  8
0
  6
CONTINUOUS
 62
     7
100
AcDbCircle
 10
72.9108901925
 20
83.2949353456
 30
0.0
 40
3.000000000000023
100
AcDbArc
 50
224.855256431
 51
235.7902449846
  0
LINE
  5
3C4
330
40A
100
AcDbEntity
  8
0
  6
CONTINUOUS
 62
     7
100
AcDbLine
 10
70.7842176343
 20
81.1789807548
 30
0.0
 11
65.6815971807
 21
86.2816012085
 31
0.0
  0
ARC
  5
3C5
330
40A
100
AcDbEntity
  8
0
  6
CONTINUOUS
 62
     7
100
AcDbCircle
 10
66.8382176343
 20
87.2816012085
 30
0.0
 40
2.000000000000016
100
AcDbArc
 50
184.6833616431
 51
225.0
  0
LINE
  5
3C6
330
40A
100
AcDbEntity
  8
0
  6
CONTINUOUS
 62
     7
100
AcDbLine
 10
72.8382176343
 20
79.2816012085
 30
0.0
 11
73.4960637387
 21
79.2816012085
 31
0.0
  0
ARC
  5
3C7
330
40A
100
AcDbEntity
  8
0
  6
CONTINUOUS
 62
     7
100
AcDbCircle
 10
72.8382176343
 20
81.2816012085
 30
0.0
 40
2.000000000000016
100
AcDbArc
 50
225.0
 51
270.0
  0
LINE
  5
3C8
330
40A
100
AcDbEntity
  8
0
  6
CONTINUOUS
 62
     7
100
AcDbLine
 10
71.4240040719
 20
79.8673876461
 30
0.0
 11
65.4240040719
 21
85.8673876461
 31
0.0
  0
LINE
  5
3C9
330
40A
100
AcDbEntity
  8
0
  6
CONTINUOUS
 62
     7
100
AcDbLine
 10
54.7382176343
 20
88.2816012085
 30
0.0
 11
63.6815971807
 21
88.2816012085
 31
0.0
  0
LINE
  5
3CA
330
40A
100
AcDbEntity
  8
0
  6
CONTINUOUS
 62
     7
100
AcDbLine
 10
54.7382176343
 20
88.2816012085
 30
0.0
 11
54.7382176343
 21
87.9816012085
 31
0.0
  0
LINE
  5
3CB
330
40A
100
AcDbEntity
  8
0
  6
CONTINUOUS
 62
     7
100
AcDbLine
 10
54.7382176343
 20
87.9816012085
 30
0.0
 11
54.7382176343
 21
80.5816012085
 31
0.0
  0
LINE
  5
3CC
330
40A
100
AcDbEntity
  8
0
  6
CONTINUOUS
 62
     7
100
AcDbLine
 10
71.0097905095
 20
80.2816012085
 30
0.0
 11
54.7382176343
 21
80.2816012085
 31
0.0
  0
LINE
  5
3CD
330
40A
100
AcDbEntity
  8
0
  6
CONTINUOUS
 62
     7
100
AcDbLine
 10
54.7382176343
 20
80.5816012085
 30
0.0
 11
54.7382176343
 21
80.2816012085
 31
0.0
  0
LINE
  5
3CE
330
40A
100
AcDbEntity
  8
0
  6
CONTINUOUS
 62
     7
100
AcDbLine
 10
54.7382176343
 20
80.5816012085
 30
0.0
 11
54.4382176343
 21
80.5816012085
 31
0.0
  0
LINE
  5
3CF
330
40A
100
AcDbEntity
  8
0
  6
CONTINUOUS
 62
     7
100
AcDbLine
 10
54.4382176343
 20
80.5816012085
 30
0.0
 11
54.4382176343
 21
87.9816012085
 31
0.0
  0
LINE
  5
3D0
330
40A
100
AcDbEntity
  8
0
  6
CONTINUOUS
 62
     7
100
AcDbLine
 10
54.7382176343
 20
87.9816012085
 30
0.0
 11
54.4382176343
 21
87.9816012085
 31
0.0
  0
ARC
  5
3D1
330
40A
100
AcDbEntity
  8
0
  6
CONTINUOUS
 62
     7
100
AcDbCircle
 10
54.7382176343
 20
87.9816012085
 30
0.0
 40
0.3000000000000114
100
AcDbArc
 50
90.0
 51
180.0
  0
ARC
  5
3D2
330
40A
100
AcDbEntity
  8
0
  6
CONTINUOUS
 62
     7
100
AcDbCircle
 10
54.7382176343
 20
80.5816012085
 30
0.0
 40
0.3000000000000114
100
AcDbArc
 50
180.0
 51
270.0
  0
LINE
  5
3D3
330
40A
100
AcDbEntity
  8
0
  6
CONTINUOUS
 62
     7
100
AcDbLine
 10
147.0240040719
 20
91.0316012085
 30
0.0
 11
109.7702684419
 21
91.0316012085
 31
0.0
  0
LINE
  5
3D4
330
40A
100
AcDbEntity
  8
0
  6
CONTINUOUS
 62
     7
100
AcDbLine
 10
109.7702684419
 20
77.5316012085
 30
0.0
 11
147.0240040719
 21
77.5316012085
 31
0.0
  0
LINE
  5
3D5
330
40A
100
AcDbEntity
  8
0
  6
CONTINUOUS
 62
     7
100
AcDbLine
 10
63.9815971807
 20
87.9816012085
 30
0.0
 11
54.7382176343
 21
87.9816012085
 31
0.0
  0
LINE
  5
3D6
330
40A
100
AcDbEntity
  8
0
  6
CONTINUOUS
 62
     7
100
AcDbLine
 10
54.7382176343
 20
80.5816012085
 30
0.0
 11
70.7097905095
 21
80.5816012085
 31
0.0
  0
LINE
  5
3EF
330
40A
100
AcDbEntity
  8
0
  6
CENTERX2
 62
     7
100
AcDbLine
 10
50.4660379735
 20
84.2816012085
 30
0.0
 11
168.406060101
 21
84.2816012085
 31
0.0
  0
ENDSEC
  0
SECTION
  2
OBJECTS
  0
DICTIONARY
  5
3FA
330
0
100
AcDbDictionary
  3
ACAD_GROUP
350
3FB
  3
ACAD_MLINESTYLE
350
404
  3
ACAD_SCALELIST
350
472
  3
APPDATA
350
4B1
  3
DWGPROPS
350
4B9
  3
FX_DICT_DIMENSION_PALETTE
350
4B4
  0
DICTIONARY
  5
4B6
330
40A
100
AcDbDictionary
280
     1
  3
DIM_BOUNDING_BOXES_V1
360
4B7
  0
DICTIONARY
  5
3FB
102
{ACAD_REACTORS
330
3FA
102
}
330
3FA
100
AcDbDictionary
  0
DICTIONARY
  5
404
102
{ACAD_REACTORS
330
3FA
102
}
330
3FA
100
AcDbDictionary
  3
STANDARD
350
405
  0
DICTIONARY
  5
472
102
{ACAD_REACTORS
330
3FA
102
}
330
3FA
100
AcDbDictionary
  0
DICTIONARY
  5
4B1
102
{ACAD_REACTORS
330
3FA
102
}
330
3FA
100
AcDbDictionary
  0
XRECORD
  5
4B9
102
{ACAD_REACTORS
330
3FA
102
}
330
3FA
100
AcDbXrecord
  1
DWGPROPS COOKIE
  2

  3

  4

  6

  7

  8
chrwyd
  9

300
=
301
=
302
=
303
=
304
=
305
=
306
=
307
=
308
=
309
=
 40
0.0
 41
2460249.747837905
 42
2460255.640958912
  1

 90
        0
  0
DICTIONARY
  5
4B4
102
{ACAD_REACTORS
330
3FA
102
}
330
3FA
100
AcDbDictionary
1001
FX_DIMP_FAV_VERSION
1071
        1
  0
DICTIONARY
  5
4B7
102
{ACAD_REACTORS
330
4B6
102
}
330
4B6
100
AcDbDictionary
  0
MLINESTYLE
  5
405
102
{ACAD_REACTORS
330
404
102
}
330
404
100
AcDbMlineStyle
  2
Standard
 70
     0
  3

 62
   256
 51
90.0
 52
90.0
 71
     2
 49
0.5
 62
   256
  6
BYLAYER
 49
-0.5
 62
   256
  6
BYLAYER
  0
ENDSEC
  0
EOF
